Oops, an error
Loading. Please wait.

Beichte tab

version 2
version 2

Whole song

5,348 views 1 this week
5 commentsread comments
1 2 3 4 5
x 4
add to favorites
×
Save as Personal and add changes to this tab that will be seen only by you. Learn more ›
×
You can save this tab as Personal to edit and correct it or add notes. All changes will be seen only by you. Learn more »
launch autoscroll
font size
0
reset
how to read this tab
guitar tuner
edit
Autoscroll
slow
fast
+/-
esc
set tempo
stop
Difficulty
Hi this is my first tab but i was looking for this song every were but its not on eney 
so i tought id put it on lol.
Jus wanna say elo 2 danielle (biggest tokio hotel fan ever lol)
isnt 100% correct but its the closest you will find on the internet lol.

INTRO
E-------------------------------------|
B-------------------------------------|
G--9-9-9-9-9-9-9-9--6-6-6-6-6-6-6-6---|
D--9-9-9-9-9-9-9-9--6-6-6-6-6-6-6-6---|  x8
A--7-7-7-7-7-7-7-7--4-4-4-4-4-4-4-4---|
E-------------------------------------|


VERSE
E--------------------------------     -------------------------------------|
B--------------------------------     -------------------------------------|
G--9-9-9-9-9-9-9-9--6-6-6-6-6----     ---4-4-4-4-4-4-4-4-4-4-4-4-----------|
D--9-9-9-9-9-9-9-9--6-6-6-6-6---- x4  ---4-4-4-4-4-4-4-4-4-4-4-4-----------|
A--7-7-7-7-7-7-7-7--4-4-4-4-4----     ---2-2-2-2-2-2-2-2-2-2-2-2-----------|
E--------------------------------     -------------------------------------|
and then play it again but at the end play this:

E---------------------|
B---------------------|
G--5-5-5-5-5-5-5-5-5--|
D--5-5-5-5-5-5-5-5-5--|
A--3-3-3-3-3-3-3-3-3--|
E---------------------|

CHORUS
E---------------------------------------------|
B---------------------------------------------|
G--9-9-9-9-9--6-6-6-6-6--4-4-4-4-4------------|
D--9-9-9-9-9--6-6-6-6-6--4-4-4-4-4--7-7-7-7-7-|
A--7-7-7-7-7--4-4-4-4-4--2-2-2-2-2--7-7-7-7-7-|
E-----------------------------------4-4-4-4-4-|

E-----------------------------------|
B-----------------------------------|
G--9-9-9-9-9--6-6-6-6-6--4-4-4-4-4--|
D--9-9-9-9-9--6-6-6-6-6--4-4-4-4-4--|
A--7-7-7-7-7--4-4-4-4-4--2-2-2-2-2--|
E-----------------------------------|

VERSE
E--------------------------------     -------------------------------------|
B--------------------------------     -------------------------------------|
G--9-9-9-9-9-9-9-9--6-6-6-6-6----     ---4-4-4-4-4-4-4-4-4-4-4-4-----------|
D--9-9-9-9-9-9-9-9--6-6-6-6-6---- x4  ---4-4-4-4-4-4-4-4-4-4-4-4-----------|
A--7-7-7-7-7-7-7-7--4-4-4-4-4----     ---2-2-2-2-2-2-2-2-2-2-2-2-----------|
E--------------------------------     -------------------------------------|
and then play it again but at the end play this:

E---------------------|
B---------------------|
G--5-5-5-5-5-5-5-5-5--|
D--5-5-5-5-5-5-5-5-5--|
A--3-3-3-3-3-3-3-3-3--|
E---------------------|

CHORUS
E---------------------------------------------|
B---------------------------------------------|
G--9-9-9-9-9--6-6-6-6-6--4-4-4-4-4------------|
D--9-9-9-9-9--6-6-6-6-6--4-4-4-4-4--7-7-7-7-7-|
A--7-7-7-7-7--4-4-4-4-4--2-2-2-2-2--7-7-7-7-7-|
E-----------------------------------4-4-4-4-4-|

E-----------------------------------|
B-----------------------------------|
G--9-9-9-9-9--6-6-6-6-6--4-4-4-4-4--|
D--9-9-9-9-9--6-6-6-6-6--4-4-4-4-4--|
A--7-7-7-7-7--4-4-4-4-4--2-2-2-2-2--|
E-----------------------------------|
Play the whole chorus twice

BRIGDE
E--------------------------------------------------|
B--------------------------------------------------|
G--4-4-4-------------------------------------------|
D--4-4-4-------------------------------------------|
A--2-2-2-------------------------------------------|
E--------------------------------------------------|

listen to the song and work out how meny times you have to repet it becouse its loads of 
and i cant write it all lol.
E--------------------------------------------------|
B--------------------------------------------------|
G--6-6-6-6-6--8-8-8-8-8--11-11-11-11-11-9-9-9-9-9--|
D--6-6-6-6-6--8-8-8-8-8--11-11-11-11-11-9-9-9-9-9--|
A--4-4-4-4-4--6-6-6-6-6--9--9--9--9--9--7-7-7-7-7--|
E--------------------------------------------------|

E---------------------------------------|
B---------------------------------------|
G--6-6-6-6-6--8-8-8-8-8--11-11-11-11-11-|
D--6-6-6-6-6--8-8-8-8-8--11-11-11-11-11-|
A--4-4-4-4-4--6-6-6-6-6--9--9--9--9--9--|
E---------------------------------------|

CHORUS
E---------------------------------------------|
B---------------------------------------------|
G--9-9-9-9-9--6-6-6-6-6--4-4-4-4-4------------|
D--9-9-9-9-9--6-6-6-6-6--4-4-4-4-4--7-7-7-7-7-|
A--7-7-7-7-7--4-4-4-4-4--2-2-2-2-2--7-7-7-7-7-|
E-----------------------------------4-4-4-4-4-|

E-----------------------------------|
B-----------------------------------|
G--9-9-9-9-9--6-6-6-6-6--4-4-4-4-4--|
D--9-9-9-9-9--6-6-6-6-6--4-4-4-4-4--|
A--7-7-7-7-7--4-4-4-4-4--2-2-2-2-2--|
E-----------------------------------|
Play the whole chorus 3 times

right thats it, not 100% correct but its the best you will find lol. bibi

charlie! p.s elo danielle again hehe
Suggest correction
Creating personal tab
Creating personal tab
You can edit any tab online and save it as your Personal.

You can edit, replace or remove any tab part or add personal notes – all changes will be seen only by you.

Personal tabs can be accessed anytime from any device, even offline.
Learn more »
comments
print report bad tab
5 comments total. Showing first comments.
0 reply
KondomChan 10 Jan 24, 2007 08:26 AM

Good Tab- I couldn't find it any where either.
Thanks for posting it!
But, are you really Laughing Out Loud? xDD
Just kidding.

0 reply
x-hunter 53 Jan 28, 2008 11:11 PM

i dont know if im just picking up the bass line when i listen to this song
but the way i hear it goes like
this

E---------------------------------------------|
B---------------------------------------------|
G-------------
9-9-9-9-9--8-8-8-8-8--6-6-6-6-6-|
D--7-7-7-7-7--9-9-9-9-9--9-9-9-9-9--6-6-6-6-6-|
A--7-7-7-7-7--7-7-7-7-7--6-6-6-6-6--
4-4-4-4-4-|
E--5-5-5-5-5----------------------------------|

E---------------------------------------|
B------------
---------------------------|
G-------------6-6-6-6-6--4-4-4-4-4------|
D--7-7-7-7-7--6-6-6-6-6--4-4-4-4-4------|
A--7
-7-7-7-7--4-4-4-4-4--2-2-2-2-2------|
E--5-5-5-5-5----------------------------|

0 reply
x-hunter 53 Jan 30, 2008 09:21 PM

BAHH
no
you were right
im just an idiot
my mistake
sorry.

guest
Wanna post a correction for this tab? Suggest correction