Oops, an error
Loading. Please wait.

Black bass

3,420 views 1 this week
no commentswrite comment
1 2 3 4 5
2 more votes to show rating
add to favorites
×
Save as Personal and add changes to this tab that will be seen only by you. Learn more ›
×
You can save this tab as Personal to edit and correct it or add notes. All changes will be seen only by you. Learn more »
launch autoscroll
font size
0
reset
guitar tuner
edit
Autoscroll
slow
fast
+/-
esc
set tempo
stop
Author
Tokio Hotel - Black

e-mail xcandyrock@gmail.com

Tuning: Drop D

INTRO
G|---------------------------------|
D|------5--------------------------|
A|--6-----6-5--5--------------5----| x2
D|----------------8--8-8-7--5---5--|

VERSE
The world has broken down
G|---------------------------------|
D|------5--------------------------|
A|--6-----6-5--5--------------5----| x8
D|----------------8--8-8-7--5---5--|

..come on
G|---------------------------------|
D|-------8-----8------8-------8----|
A|--/6-----6-----6-5-----5-5----5--|
D|---------------------------------|

CHORUS
The last look back is black
G|--------------------------------|
D|--------------------------------|
A|--------------------------------|
D|--3--3-3-1--1-0--0-0-0--0-0-0---|

The night turns dark ahead
G|--------------------------------|
D|--------------------------------|
A|--------------------------------|
D|--3--3-3-1--1-0--0-0-0--0-1-3---|

There's no turning back
G|--------------------------------|
D|--------------------------------|
A|--------------------------------|
D|--3--3-3-1--1-0--0-0-0--0-0-0---|

we're black
G|--------------------------------|
D|------8-----8------8-------8----|
A|-/6-----6-----6-5-----5-5----5--|
D|--------------------------------|

POST-CHORUS
G|---------------------------------|
D|------5--------------------------|
A|--6-----6-5--5--------------5----| x2
D|----------------8--8-8-7--5---5--|

VERSE
Where have you gone
G|---------------------------------|
D|------5--------------------------|
A|--6-----6-5--5--------------5----| x8
D|----------------8--8-8-7--5---5--|

..on and on..
G|---------------------------------|
D|-------8-----8------8-------8----|
A|--/6-----6-----6-5-----5-5----5--|
D|---------------------------------|

CHORUS
The last look back is black
G|--------------------------------|
D|--------------------------------|
A|--------------------------------|
D|--3--3-3-1--1-0--0-0-0--0-0-0---|

The night turns dark ahead
G|--------------------------------|
D|--------------------------------|
A|--------------------------------|
D|--3--3-3-1--1-0--0-0-0--0-1-3---|

There's no turning back
G|--------------------------------|
D|--------------------------------|
A|--------------------------------|
D|--3--3-3-1--1-0--0-0-0--0-0-0---|

we're black
G|--------------------------------|
D|------8-----8------8-------8----|
A|-/6-----6-----6-5-----5-5----5--|
D|--------------------------------|

POST-CHORUS
no turning back..
G|---------------------------------|
D|------5--------------------------|
A|--6-----6-5--5--------------5----| x5
D|----------------8--8-8-7--5---5--|

let us run..
G|---------------------------------|
D|------5--------------------------|
A|--6-----6-5--5--------------5----| x3
D|----------------8--8-8-7--5---5--|

come on..
G|----------------------------------------|
D|-------8--------8----8------------------|
A|--/6-----6--6-6----6----5-5-5-5-5-5-3\1-|
D|----------------------------------------|

CHORUS
the last look back is black
G|--------------------------------|
D|--------------------------------|
A|--------------------------------|
D|--3--3-3-1--1-0--0-0-0--0-0-0---|

the night turns dark ahead
G|--------------------------------|
D|--------------------------------|
A|-----------------5-5-5--5-7-8---|
D|--3--3-3-1--1-0-----------------|

ther's no turning back
G|--------------------------------|
D|--------------------------------|
A|---------6--6-5--5-5-5--5-5-5---|
D|--3--3-3------------------------|

we're glad, so glad
G|----------------------------------------|
D|-------8--------8----8------------------|
A|--/6-----6--6-6----6----6-6-6-6-6-6-5\3-|
D|----------------------------------------|

the last look back is black
G|--------------------------------|
D|--------------------------------|
A|--------------------------------|
D|--3--3-3-1--1-0--0-0-0--0-0-0---|

the night turns dark ahead
G|--------------------------------|
D|--------------------------------|
A|-----------------5-5-5--5-7-8---|
D|--3--3-3-1--1-0-----------------|

there's no turning back
G|--------------------------------|
D|--------------------------------|
A|---------6--6-5--5-5-5--5-5-5---|
D|--3--3-3------------------------|

we're glad, so glad
G|---------------------------------|
D|-------8-----8------8-------8----|
A|--/6-----6-----6-5-----5-5----5--|
D|---------------------------------|

no turning back
G|----------------------------------------|
D|-------8--------8----8------------------|
A|--/6-----6--6-6----6----5-5-5-5-5-6-5-6-|
D|----------------------------------------|

            
            
Suggest correction
Creating personal tab
Creating personal tab
You can edit any tab online and save it as your Personal.

You can edit, replace or remove any tab part or add personal notes – all changes will be seen only by you.

Personal tabs can be accessed anytime from any device, even offline.
Learn more »
Give kudos to tab author, rate the tab!
1 2 3 4 5
comments
print report bad tab
guest
You may want to rate the tab now too:
select rating
Wanna post a correction for this tab? Suggest correction