Oops, an error
Loading. Please wait.

Down On You bass

916 views 1 this week
no commentswrite comment
1 2 3 4 5
3 more votes to show rating
add to favorites
×
Save as Personal and add changes to this tab that will be seen only by you. Learn more ›
×
You can save this tab as Personal to edit and correct it or add notes. All changes will be seen only by you. Learn more »
launch autoscroll
font size
0
reset
guitar tuner
edit
Autoscroll
slow
fast
+/-
esc
set tempo
stop
Author
Difficulty
Tokio Hotel - Down on you

e-mail: xcandyrock@gmail.com

tuning: standard

VERSE
can I drive you home..
G|-------------------------------------|
D|-------------------------------------|
A|----------55555555-88888888-88888888-|
E|-66666666----------------------------|

G|-------------------------------------|
D|-------------------------------------|
A|----------55555555-88888888-88888753-|
E|-66666666----------------------------|

some angels don't cry
G|-------------------------------------|
D|------------------------------333----|
A|-11111111-33333333-55555555-55---555-|
E|-------------------------------------|

G|-------------------------------------|
D|-------------------------------------|
A|-11111111-33333333-55555555-5---5----|
E|-----------------------------555-555-|

CHORUS
I get down on you...
G|-------------------------------------|
D|-------------------00000000----------|
A|----------11111111----------11111111-|
E|-11111111----------------------------|

G|-------------------------------------|
D|-33333333----------00000000----------|
A|----------11111111----------11111111-|
E|-------------------------------------|

Right into your rockstar dreams
G|-------------------------------------|
D|----------------------------33333333-|
A|-11111111-33333333-55555555----------|
E|-------------------------------------|

I get down on you..
G|----------22222222-------------------|
D|-------------------00000000-00000000-|
A|-11111111----------------------------|
E|-------------------------------------|

VERSE
can I fill you up..
G|-------------------------------------|
D|-------------------------------------|
A|----------55555555-88888888-88888888-|
E|-66666666----------------------------|

G|-------------------------------------|
D|-------------------------------------|
A|----------55555555-88888888-88888753-|
E|-66666666----------------------------|

'cause angels..
G|-------------------------------------|
D|---------------------------------333-|
A|-11111111-33333333-55555555-55555----|
E|-------------------------------------|

G|-------------------------------------|
D|-------------------------------------|
A|-11111111-33333333-55555555-5---5----|
E|-----------------------------555-555-|

CHORUS
I get down on you..
G|-------------------------------------|
D|-------------------00000000----------|
A|----------11111111----------11111111-|
E|-11111111----------------------------|

G|-------------------------------------|
D|-33333333----------00000000----------|
A|----------11111111----------11111111-|
E|-------------------------------------|

right into your rockstar dreams..
G|-------------------------------------|
D|----------------------------33333333-|
A|-11111111-33333333-55555555----------|
E|-------------------------------------|

I get down on you..
G|----------22222222-------------------|
D|-------------------------------------|
A|-11111111----------5---5----5---5----|
E|--------------------555-555--555-555-|

BRIDGE
G|-------------------------------------|
D|-------------------00000000-00000000-|
A|-11111111-11111111-------------------|
E|-------------------------------------|

Angels, angels don't cry
G|-------------------------------------|
D|-------------------00-000--00-000----|
A|-11-111--11-111----------------------|
E|-------------------------------------|


G|-------------------------------------|
D|-------------------00-000--00-000----|
A|-11-111--33-333-3--------------------|
E|-------------------------------------|
come in tonight
G|-------------------------------------|
D|-------------------------------------|
A|-11-111--33-333-3--------------------|
E|-------------------------------------|

CHORUS
G|-------------------------------------|
D|-------------------00000000----------|
A|----------11111111----------11111111-|
E|-11111111----------------------------|

G|-------------------------------------|
D|-33333333----------00000000----------|
A|----------11111111----------11111111-|
E|-------------------------------------|

G|-------------------------------------|
D|----------------------------33333333-|
A|-11111111-33333333-55555555----------|
E|-------------------------------------|

G|----------22222222-------------------|
D|-------------------00000000-00000000-|
A|-11111111----------------------------|
E|-------------------------------------|

can I drive you home..
G|-------------------------------------|
D|----------------------------33333333-|
A|-11111111-33333333-55555555----------|
E|-------------------------------------|

can you fix my soul..
G|-------------------------------------|
D|-------------------------------------|
A|-11111111-33333333-5-----------------|
E|-------------------------------------|
Suggest correction
Creating personal tab
Creating personal tab
You can edit any tab online and save it as your Personal.

You can edit, replace or remove any tab part or add personal notes – all changes will be seen only by you.

Personal tabs can be accessed anytime from any device, even offline.
Learn more »
Give kudos to tab author, rate the tab!
1 2 3 4 5
comments
print report bad tab
guest
You may want to rate the tab now too:
select rating
Wanna post a correction for this tab? Suggest correction