Oops, an error
Loading. Please wait.

Durch Den Monsun tab

version 5
version 5

Whole song

Interactive

18,248 views 9 this week
10 commentsread comments
1 2 3 4 5
x 20
add to favorites
×
Save as Personal and add changes to this tab that will be seen only by you. Learn more ›
×
You can save this tab as Personal to edit and correct it or add notes. All changes will be seen only by you. Learn more »
launch autoscroll
font size
0
reset
how to read this tab
guitar tuner
edit
Autoscroll
slow
fast
+/-
esc
set tempo
stop
Author
Artist         : Tokio Hotel
Song           : Durch Den Monsun


[intro]
e---------------------|
B---------------------|
G---------------------|
D-222-33-22-----------|
A-333-33-33-----------|
E-333-33-33-----------|
  
[verse]
e-----------------------|  |----------------------| 
B-----------------------|  |----------------------| Das Fenster öffnet sich nicht mehr
G-----------------------|  |----------------------| hier drin ist es voll von dir und leer
D-666-77-66---222-33-22-|x3|----------------------| und vor mir geht die letzte 
A-777-77-77---333-33-33-|  |-7-77-7777--2-22-2222-| Kerze aus.
E-777-77-77---333-33-33-|  |-5-55-5555--3-33-3333-| 

e-----------------------|  |----------------------| 
B-----------------------|  |----------------------| ich warte schon ne Ewigkeit
G-----------------------|  |----------------------| endlich ist es jetzt soweit
D-666-77-66---222-33-22-|x3|----------------------| da draußen ziehen die schwarzen 
A-777-77-77---333-33-33-|  |-5-55-5555--4-44-4444-| Wolken auf.
E-777-77-77---333-33-33-|  |-5-55-5555--5-55-5555-| 

[chorus]
e-3--3--3--2--2--2--3--3--3--2--2--2-----| 
B--5--5--5--3--3--3--5--5--5--3--3--3----| Ich muss durch den Monsun
G---5--5-----2--2-----4--4-----4--4------| Hinter die Welt Ans Ende der Zeit
D----------------------------------------| bis kein Regen mehr fällt
A----------------------------------------| 
E----------------------------------------|

e-3--3--3--2--2--2--2--2--2-----3--3--3--3--3--3---2-|
B--5--5--5--3--3--3--3--3--3--5--5--5--5--5--5--3-| Gegen den Sturm am Abgrund entlang
G---5--5-----2--2-----4--4-----4--4-----5--5----2-| und wenn ich nicht mehr kann denk ich daran
D-----------------------------------------------0-| Irgendwann laufen wir zusamm
A-------------------------------------------------| 
E-------------------------------------------------|

  First Guitar            Second Guitar        
e----------------------||--------------12-14-12---|
B----------------------||----------------------13~|
G----------------------||-------------------------|
D-666-77-6---222-33-2--||-------------------------| durch den Monsun Dann wird alles gut
A-777-77-7---333-33-3--||-------------------------|
E-777-77-7---333-33-3--||-------------------------|
                       X2
e--------------------|  |--------------------| 
B--------------------|  |--------------------| Ein halber Mond versinkt vor mir
G--------------------|  |--------------------| war der eben noch bei dir?
D-666-77-6--222-33-2-|x3|--------------------| Und hält er wirklich was 
A-777-77-7--333-33-3-|  |-77-7777--22-2222---| er mir verspricht.
E-777-77-7--333-33-3-|  |-55-5555--33-3333---| 

e--------------------|  |10h12-0-00-0000-0-00-0000-| 
B--------------------|  |------3-33-3333-2-22-2222-| Ich weiss das ich dich finden kann
G--------------------|  |--------------------------| Hör deinen Namen im Orkan
D-666-77-6--222-33-2-|x3|--------------------------| Ich glaub noch mehr dran glauben 
A-777-77-7--333-33-3-|  |--------------------------| kann ich nicht
E-777-77-7--333-33-3-|  |--------------------------| 
[chorus]
e-3--3--3--2--2--2--3--3--3--2--2--2-----| 
B--5--5--5--3--3--3--5--5--5--3--3--3----| Ich muss durch den Monsun
G---5--5-----2--2-----4--4-----4--4------| Hinter die Welt Ans Ende der Zeit
D----------------------------------------| bis kein Regen mehr fällt
A----------------------------------------| 
E----------------------------------------|

e-3--3--3--2--2--2--2--2--2-----|
B--5--5--5--3--3--3--3--3--3----| 
G---5--5-----2--2-----4--4--4---| Gegen den Sturm am Abgrund entlang
D-------------------------------| und wenn ich nicht mehr kann denk ich daran
A-------------------------------| 
E-------------------------------|

(To play this needed Distortion Guitar)
e-33333333--55555555--77777777--22222222--55555555--55555555-| 
B-55555555--77777777--88888888--33333333--55555555--55555555-| Irgendwann laufen wir zusamm
G-55555555--77777777--99999999--44444444--55555555--55555555-| Weil uns einfach nichts
D-55555555--77777777--99999999--44444444--55555555--55555555-| mehr halten kann      
A-33333333--55555555--77777777--33333333--33333333--33333333-| Durch den Monsun
E------------------------------------------------------------| 

D-777-666--333-222----777-666--333-222-| Hey!
A-777-777--333-333----777-777--333-333-| Hey!

First Guitar
e-------------------|  |-(in the last time)-0-|
B-------------------|  |-----(play this)----1-| Ich kämpf mich durch die Mächte
G-------------------|  |--------------------0-| hinter dieser Tür
D-777-666--333-222--|x3|--777-666--333-333--2-| werde sie besiegen
A-777-777--333-333--|  |--777-777--333-333--3-| Und dann führn sie mich zu dir
E-------------------|  |----------------------|
^^^^^^^^^^^^^^^^^^^^^^^^^^^^^^^^^^^
Second Guitar followed first guitar
e-------------------|  |--------------------3-|
B-------------------|  |--------------------5-|
G-999-888--555-444--|  |--999-888--555-555--5-|
D-999-888--555-444--|x5|--999-888--555-555--5-|
A-777-666--333-222--|  |--777-666--333-333--3-|
E-------------------|  |----------------------|

First Guitar
e-----------------|  |-(in the last)-|
B-----------------|  |-(ended with)--| Dann wird alles gut
G-99-1111--99-----|  |-(his chord)---| Dann wird alles gut
D-99-1111--99-10--|x5|--10~----------| Wird alles gut
A-77--9-9--77-10--|  |--10~----------| Alles gut
E--------------8--|  |---8~----------|

Second Guitar followed first guitar       
e------12-14-12---|  |--12~----------|
B--------------13~|  |--13~----------|
G-----------------|  |---------------|
D-----------------|x5|---------------|
A-----------------|  |---------------|
E-----------------|  |---------------|






Ich muss durch den Monsun, 
                      e---------------------------------------------| 
                      B---------------------------------------------| Hinter die Welt
                      G-5555-5550--7777-7770--9999-9990-------------| Ans Ende der Zeit
                      D-5555-5550--7777-7770--9999-9990--9999-9990--| bis kein Regen
                      A-3335-3330--5555-5550--7777-7770--9999-9990--| mehr fällt
                      E----------------------------------7777-7770--| Gegen den ...

e---------------------------------------------| 
B---------------------------------------------| ... Sturm am Abgrund entlang
G-5555-5550--7777-7770-------------9999-9990--| und wenn ich nicht mehr kann denk ich daran
D-5555-5550--7777-7770--9999-9990--9999-9990--| Irgendwann ...  
A-3335-3330--5555-5550--9999-9990--7777-7770--|
E-----------------------7777-7770-------------|

e---------------------------------------------| 
B---------------------------------------------| ... laufen wir zusamm,
G-5555-5550--7777-7770--9999-9990-------------| Weil uns einfach nichts mehr halten kann
D-5555-5550--7777-7770--9999-9990--9999-9990--| Durch den ... 
A-3335-3330--5555-5550--7777-7770--9999-9990--| 
E----------------------------------7777-7770--| 

e---------------------| 
B---------------------| ... Monsun
G-5555-5555-5555-5555-| Durch den ...
D-5555-5555-5555-5555-| 
A-3335-3333-3333-3333-|
E---------------------|
                           
First Guitar               (ended with his part)
e-----------------------|  |-------------00-0-00~|
B-----------------------|  |-------------00-0-00~| Dann wird alles gut
G-----------------------|  |-------------00-0-00~| Durch den Monsun
D-666-77-66---222-33-22-|x3|-666-77-66---22-2-22~| Dann wird alles gut
A-777-77-77---333-33-33-|  |-777-77-77---33-3-33~|
E-777-77-77---333-33-33-|  |-777-77-77--------00~|

Second Guitar
e-------------------------|  |---------------00-0-00~|
B-------------------------|  |---------------00-0-00~|
G-999-1111-99--555-66-55--|  |-999-1111-99---00-0-00~|
D-xxx--x-x-xx--xxx-xx-xx--|x3|-xxx--x-x-xx---22-2-22~|
A-777--9-9-77--333-44-33--|  |-777--9-9-77---33-3-33~|
E-------------------------|  |--------------------00~|

Enjoy.

            
            
Suggest correction
Creating personal tab
Creating personal tab
You can edit any tab online and save it as your Personal.

You can edit, replace or remove any tab part or add personal notes – all changes will be seen only by you.

Personal tabs can be accessed anytime from any device, even offline.
Learn more »
comments
print report bad tab
10 comments total. Showing first comments.
-2 reply
spin41 20 Feb 03, 2006 04:56 AM

Have u play ur tab?

¬¬" bad bad bad

-1 reply
Homer F. 10 Jun 05, 2006 05:51 AM

tokio hotel is the biggest shit in the world!!!! Go and kill´em all!!

0 reply
ilir 795 Jan 06, 2007 09:40 AM

correct im not fan of Tokio Hotel..
and im not audience of that style music.. i like progressive, alternative, and some another genre..
i just make a tab for rate and points..
Thx.. 4 entente..

guest
You may want to rate the tab now too:
select rating
Wanna post a correction for this tab? Suggest correction