Oops, an error
Loading. Please wait.

Komm bass

461 views 3 this week
no commentswrite comment
1 2 3 4 5
3 more votes to show rating
add to favorites
×
Save as Personal and add changes to this tab that will be seen only by you. Learn more ›
×
You can save this tab as Personal to edit and correct it or add notes. All changes will be seen only by you. Learn more »
launch autoscroll
font size
0
reset
guitar tuner
edit
Autoscroll
slow
fast
+/-
esc
set tempo
stop
Author
Difficulty
Tokio Hotel - Komm
e-mail: xcandyrock@gmail.com

It was quite hard for me to hear the bass because they put a lot of effects on it 
and because of the piano. I still think it's quite a good job although I'm not sure of the bridge

Tuning: standard

INTRO 
[no bass]

komm mit!
G|-----------------------------------------|
D|-----------------------------------------|
A|-----------22222222------------00000000--|
E|-00000000------------33333333------------|

VERSE
Spürst du's auch
G|--------------------------------|
D|--------------------------------|
A|---------------------------7-7--|
E|-0-0--0--0-0-0---0-0--0--0------|

Isoliert
G|--------------------------------|
D|--------------------------------|
A|-2-2-2----2--2---3--3----3---3--|
E|--------3--3-----------3---3----|
         |______|       |_______| -----> are played very quickly


Unter deine Haut
G|--------------------------------|
D|--------------------------------|
A|--------------------------------|
E|-5-5-5--3-5-3-5--3--3--0-3-0-3--|

Endloss weit
G|--------------------------------|
D|--------------------------------|
A|---------------------------7-7--|
E|-0-0--0--0-0-0---0-0--0--0------|

Schlägt dein Herz
G|--------------------------------|
D|--------------------------------|
A|-2-2-2----2--2---3--3----3---3--|
E|--------3--3-----------3---3----|

Auf der suche nach dem Licht
G|--------------------------------|
D|--------------------------------|
A|-0-0-0-0-0-0-0--5-5-5-5-5-5-5-5-|
E|--------------------------------|

Genau wie du und ich
G|--------------------------------|
D|-7-7-7-7-7-7-7--7---------------|
A|--------------------------------|
E|--------------------------------|

CHORUS
Komm...
G|-----------------------------------------|
D|-----------------------------------------|
A|-----------22222222------------00000000--|
E|-00000000------------33333333------------|

Komm         komm
G|---------------------|
D|---------------------|
A|-33333333--55555555--|
E|---------------------|

VERSE
Alles neu Wie'n Prototyp
G|--------------------------------|
D|--------------------------------|
A|--------------------------------|
E|-0-0--0--0-0-0---0-0--0--0--0-0-|

Schweben wir Wo es nichts mehr gibt
G|--------------------------------|
D|--------------------------------|
A|-2-2-2----2--2---3--3----3---3--|
E|--------3--3-----------3---3----|

Wir sind schwerelos
G|-----------------------------------|
D|-----------------------------------|
A|-----------------------------------|
E|-5-5-5--3-5-3-5--3--3--0-3-0-3--/7-|

Willst du mehr Willst du nie zurück
G|--------------------------------|
D|--------------------------------|
A|--------------------------------|
E|-0-0--0--0-0-0---0-0--0--0--0-0-|

Willst du alles Dan kommt mit
G|--------------------------------|
D|--------------------------------|
A|-2-2-2----2--2---3--3----3---3--|
E|--------3--3-----------3---3----|

Wir suchen nacht dem Licht
G|--------------------------------|
D|--------------------------------|
A|-0-0-0-0-0-0-0--5-5-5-5-5-5-5-5-|
E|--------------------------------|

Wir beide du und ich
G|--------------------------------|
D|-7-7-7-7-7-7-7--9---------------|
A|--------------------------------|
E|--------------------------------|

CHORUS
komm..
G|-----------------------------------------|
D|-----------------------------------------|
A|-----------22222222------------00000000--| x2
E|-00000000------------33333333------------|
   
   komm...   komm..
G|---------------------|
D|---------------------|
A|-33333333--55555555--|
E|---------------------|

BRIDGE
Kommst du mit mir x4
G|---------------------------------------|
D|---------------------------------------|
A|---------555555555-----------333333333-| x2
E|-0000000------------55555555-----------|

Komm mit!
G|---------------------------------------|
D|---------------------------------------|
A|---------555555555-----------333333333-| x2
E|-0000000------------55555555-----------|

[Only piano]
Nimm meine Hand
Wir sind allein
Zusammen wird alles
Anders sein

CHORUS
Ohohoh komm
G|-----------------------------------------|
D|-----------------------------------------|
A|-----------22222222------------00000000--| x2
E|-00000000------------33333333------------|

Komm.. Komm..
G|---------------------|
D|---------------------|
A|-33333333--55555555--|
E|---------------------|

            
            
Suggest correction
Creating personal tab
Creating personal tab
You can edit any tab online and save it as your Personal.

You can edit, replace or remove any tab part or add personal notes – all changes will be seen only by you.

Personal tabs can be accessed anytime from any device, even offline.
Learn more »
Give kudos to tab author, rate the tab!
1 2 3 4 5
comments
print report bad tab
guest
You may want to rate the tab now too:
select rating
Wanna post a correction for this tab? Suggest correction