Oops, an error
Loading. Please wait.

Phantomrider Chords

version 1
version 1

Whole song

15,886 views 1 this week
no commentswrite comment
1 2 3 4 5
2 more votes to show rating
add to favorites
launch autoscroll
font size
0
reset
transpose
0
reset
simplify chords
display chords
guitar tuner
Autoscroll
slow
fast
+/-
esc
set tempo
stop
Help us to improve Ultimate-Guitar.com Take our survey!
×
CHORDS USED:
C (3rd Fret)
---x--------------|
------x-----------|
------x-----------|
------x-----------|
---x--------------|
xxxxxxxxxxxxxxxxxx

GM (3rd Fret)
--x---------------|
--x---------------|
--x---------------|
-----x------------|
-----x------------|
--x---------------|

B (1st Fret)
---x--------------|
------x-----------|
------x-----------|
------x-----------|
---x--------------|
xxxxxxxxxxxxxxxxxx

F (1st Fret)
-x----------------|
-x----------------|
---x--------------|
-----x------------|
-----x------------|
-x----------------|

		Intro
E|------------------------------------------|
B|------------------------------------------|
G|------------------------------------------|
D|-2-----2-----2---3-----3-----3------------|  X2
A|-0-0-0-0-0-0-0-0-1-1-1-1-1-1-1-1----------|
E|------------------------------------------|

		Verse 1
E|----------------------------------------------|
B|----------------------------------------------|
G|----------------------------------------------|   X3
D|-2-----2-----2---3-----3-----3----------------|
A|-0-0-0-0-0-0-0-0-1-1-1-1-1-1-1-(0)------------|
E|----------------------------------------------|
   GAS   	&	 BLOOD
 IS 	ALL 	I’VE	  GOT
IN YOU 	I  		TRUST

E|-----------------------------------------|
B|-----------------------------------------|
G|-----------------------------------------| 	  X1
D|-----------------------------------------|
A|-3-----3-----3---3-----3-----3-----------|
E|-1-1-1-1-1-1-1-1-0-0-0-0-0-0-0-0---------|
THE FINAL EXIT’S PASSIN’ BY


E|------------------------------------------|
B|------------------------------------------|
G|------------------------------------------|
D|-2-----2-----2---3-----3-----3------------|    X3
A|-0-0-0-0-0-0-0-0-1-1-1-1-1-1-1-0----------|
E|------------------------------------------|
THE 	WHEELS		 RUN	 FREE
	UNDERRRRRRRRRR 		ME
IT’S YOU 	I 	FEEL

E|-----------------------------------------|
B|-----------------------------------------|
G|-----------------------------------------|
D|-----------------------------------------|
A|-3-----3-----3---3-----3-----3-----------|
E|-1-1-1-1-1-1-1-1-0-0-0-0-0-0-0-0---------|
A MILLION SPARKS ARE FALLIN’ DOWN

E|------------------------------------------|
B|------------------------------------------|
G|------------------------------------------|
D|-2-----2-----2---3-----3-----3------------|
A|-0-0-0-0-0-0-0-0-1-1-1-1-1-1-1------------|
E|------------------------------------------|
	I TURN THE WHEEL AROUND


	C
Kiss me goodbye
            GM
Into the light
	B
Like a phantom rider

	F
I'm dying tonight
	C
So dark and cold
             GM
I drive alone
 	B
Like a phantom rider
	           F
can't make it all on my own

         		Verse 2
E|----------------------------------------------|
B|----------------------------------------------|
G|----------------------------------------------|   X3
D|-2-----2-----2---3-----3-----3----------------|
A|-0-0-0-0-0-0-0-0-1-1-1-1-1-1-1-(0)------------|
E|----------------------------------------------|
PROMISES
I SCRATCHED		 SO DEEP
IN 	YOUR 		EMPTY	 SEAT

E|-----------------------------------------|
B|-----------------------------------------|
G|-----------------------------------------| 	  X1
D|-----------------------------------------|
A|-3-----3-----3---3-----3-----3-----------|
E|-1-1-1-1-1-1-1-1-0-0-0-0-0-0-0-0---------|
THE SKY IS TURNIN’ UPSIDE DOWN

E|------------------------------------------|
B|------------------------------------------|
G|------------------------------------------|
D|-2-----2-----2---3-----3-----3------------|    X1
A|-0-0-0-0-0-0-0-0-1-1-1-1-1-1-1-0----------|
E|------------------------------------------|
I TURN THE WHEEL AROUND

	C
Kiss me goodbye
            GM
Into the light
	B
Like a phantom rider

	F
I'm dying tonight
	C
So dark and cold
             GM
I drive alone
 	B
Like a phantom rider
	           F
can't make it all on my own


E|-------------10---8---------------------10---8-------------------|
B|-6-5-8-6-5-6----6---6-5-6---6-5-8-6-5-6----6---6-5-6-------------|
G|-----------------------------------------------------------------|
D|-----------------------------------------------------------------|    X2
A|-----------------------------------------------------------------|
E|-----------------------------------------------------------------|

E|-------------10---8---------------------10---8-------------------|
B|-6-5-8-6-5-6----6---6-5-6---6-5-8-6-5-6----6---6-5-6-------------|
G|-----------------------------------------------------------------|
D|-----------------------------------------------------------------|    X2
A|-----------------------------------------------------------------|
E|-----------------------------------------------------------------|
	DON’T KNOW YOUR NAME I STILL BELIEVE
NOW IT’S TIME FOR YOU & ME            TIME FOR YOU & ME


E|---------------------------------------------------------------|
B|--5--/1---5---/1------------5--/1--5--/1-----------------------|
G|-------------------2----3-----------------2---3~---------------|
D|---------------------3----3-----------------3------------------|
A|---------------------------------------------------------------|
E|---------------------------------------------------------------|


AM	B
Now I’m Here
AM	B
No More Fears
F
Angel, don't you cry
	AM	B
I'll meet you on the other side

            C
Goodbye
              GM
Into the light
	    B
Like a phantom rider
	F
I'm dying tonight
	C
So dark and cold
           GM
I drive alone
	B
Like a phantom rider
	              F
Can't make it all on my own
C          GM
Hey! I'm here
           B
With you
         F
I am here, here
	C
Leave me alone
	B
Phantom rider
                     F
Always die on their own
Suggest correction
Give kudos to tab author, rate the tab!
1 2 3 4 5
comments
print report bad tab
guest
You may want to rate the tab now too:
select rating
Wanna post a correction for this tab? Suggest correction