Oops, an error
Loading. Please wait.

Ready Set Go bass

version 1
version 1

Whole song

Interactive

12,336 views 1 this week
1 commentread comment
1 2 3 4 5
x 5
add to favorites
×
Save as Personal and add changes to this tab that will be seen only by you. Learn more ›
×
You can save this tab as Personal to edit and correct it or add notes. All changes will be seen only by you. Learn more »
launch autoscroll
font size
0
reset
guitar tuner
backing track
0:00
0:00
edit
Autoscroll
slow
fast
+/-
esc
set tempo
stop
Author
INTRO:

|----------------------|----------------------|
|----------------------|----------------------|
|-5--5--5--2--2--2--3--|-3--3--3--3--3--3--3--|
|----------------------|----------------------| x2


VERSO:


[We were running..]                                [Been before..]

|----------------------|----------------------|    |---|---|
|----------------------|----------------------|    |---|---|
|-5--5--5--2--2--2--3--|-3--3--3--3--3--3--3--|    |---|---|
|----------------------|----------------------| x3 |-2-|-3-|

[We learned to live..]                             [Down this wall]

|----------------------|----------------------|    |---|---| 
|----------------------|----------------------|    |---|---| 
|-5--5--5--2--2--2--3--|-3--3--3--3--3--3--3--|    |---|---| 
|----------------------|----------------------| x3 |-2-|-3-| 

[Too Young..]

|---------------------|---------------------|
|---------------------|---------------------|
|---------------------|---------------------|
|-3--3--3--5--5--5--2-|-3--3--3--5--5--5--2-|


RITORNELLO:

[Ready set go! It's time to run!]

|--------------------------|-------------------------|
|--------------------------|-------------------------|
|--5--5--5--7--7--7--7--3--|--3--3--3----------------|
|--------------------------|-----------3--3--3--3--3-| x2

[Together we can make it..]

|--------------------------|----------------------|
|--------------------------|----------------------|
|--7--7--7--7--7--7--7--7--|--3--3--3--3--3--5--7-|
|--------------------------|----------------------|

[The word is crashing down..]

|--------------------------|--------------------------|
|--------------------------|--------------------------|
|--7--7--7--7--7--7--7--7--|--3--3--3--3--3--3--3--3--|
|--------------------------|--------------------------|

|--------------------------|--------------------------|
|--------------------------|--------------------------|
|--5--5--5--5--5--5--5--5--|--2--2--2--2--2--2--2--2--|
|--------------------------|--------------------------|


PRE VERSO [0.58]:

|----------------------|----------------------|
|----------------------|----------------------|
|-5--5--5--2--2--2--3--|-3--3--3--3--3--3--3--|
|----------------------|----------------------| x2


VERSO:

[We are looking..]                                [wide awake..]

|----------------------|----------------------|    |---|---|
|----------------------|----------------------|    |---|---|
|-5--5--5--2--2--2--3--|-3--3--3--3--3--3--3--|    |---|---|
|----------------------|----------------------| x3 |-2-|-3-|

[We learned to live..]                             [Morning break]

|----------------------|----------------------|    |---|---| 
|----------------------|----------------------|    |---|---| 
|-5--5--5--2--2--2--3--|-3--3--3--3--3--3--3--|    |---|---| 
|----------------------|----------------------| x3 |-2-|-3-| 

[Too Young..]

|---------------------|---------------------|
|---------------------|---------------------|
|---------------------|---------------------|
|-3--3--3--5--5--5--2-|-3--3--3--5--5--5--2-|


RITORNELLO:

[Ready set go! It's time to run!]

|--------------------------|-------------------------|
|--------------------------|-------------------------|
|--5--5--5--7--7--7--7--3--|--3--3--3----------------|
|--------------------------|-----------3--3--3--3--3-| x2

[Together we can make it..]

|--------------------------|----------------------|
|--------------------------|----------------------|
|--7--7--7--7--7--7--7--7--|--3--3--3--3--3--5--7-|
|--------------------------|----------------------|

[The word is crashing down..]

|--------------------------|--------------------------|
|--------------------------|--------------------------|
|--7--7--7--7--7--7--7--7--|--3--3--3--3--3--3--3--3--|
|--------------------------|--------------------------|

|--------------------------|--------------------------|
|--------------------------|--------------------------|
|--5--5--5--5--5--5--5--5--|--2--2--2--2--2--2--2--2--|
|--------------------------|--------------------------|


INTERLUDE:

|--------------------------|    |---------------------|
|--------------------------|    |---------------------|
|-2-2--3-3--5-5--2-2-2-3-3-|    |---------------------|
|--------------------------| x6 |-3--3--3--5--5--5--2-| x2


RITORNELLO1:

[READY SET GO IT'S TIME TO RUN!

          [The sky is changing..]

|-------| |--------------------------|-------------------------|
|-------| |--------------------------|-------------------------|
|-5-5-5-| |--5--5--5--7--7--7--7--3--|--3--3--3----------------|
|-------| |--------------------------|-----------3--3--3--3--3-| x2


[Together we can make it..]

|--------------------------|----------------------|
|--------------------------|----------------------|
|--7--7--7--7--7--7--7--7--|--3--3--3--3--3--5--7-|
|--------------------------|----------------------|

[The word is crashing down..]

|--------------------------|--------------------------|
|--------------------------|--------------------------|
|--7--7--7--7--7--7--7--7--|--3--3--3--3--3--3--3--3--|
|--------------------------|--------------------------|

|--------------------------|--------------------------|
|--------------------------|--------------------------|
|--5--5--5--5--5--5--5--5--|--2--2--2--2--2--2--2--2--|
|--------------------------|--------------------------|

RITORNELLO2:

[Ready set go! It's time to run!]

|--------------------------|-------------------------|
|--------------------------|-------------------------|
|--5--5--5--7--7--7--7--3--|--3--3--3----------------|
|--------------------------|-----------3--3--3--3--3-| x2

[Together we can make it..]

|--------------------------|----------------------|
|--------------------------|----------------------|
|--7--7--7--7--7--7--7--7--|--3--3--3--3--3--5--7-|
|--------------------------|----------------------|

[The word is crashing down..]

|--------------------------|--------------------------|
|--------------------------|--------------------------|
|--7--7--7--7--7--7--7--7--|--3--3--3--3--3--3--3--3--|
|--------------------------|--------------------------|

|--------------------------|--------------------------|
|--------------------------|--------------------------|
|--5--5--5--5--5--5--5--5--|--2--2--2--2--2--2--2--2--|
|--------------------------|--------------------------|

[3.05 - Don't you turn around]


|----------------------|----------------------|
|----------------------|----------------------|
|-5--5--5--2--2--2--3--|-3--3--3--3--3--3--3--|
|----------------------|----------------------| x5

                         END:

|----------------------| |---------------|
|----------------------| |---------------|
|-5--5--5--2--2--2--3--| |-2-2--3-3--5-5-|
|----------------------| |---------------|

Tab by >BaD.TiGeR<

            
            
Suggest correction
Creating personal tab
Creating personal tab
You can edit any tab online and save it as your Personal.

You can edit, replace or remove any tab part or add personal notes – all changes will be seen only by you.

Personal tabs can be accessed anytime from any device, even offline.
Learn more »
comments
print report bad tab
1 comment total.
+2 reply
switch-bass 31 Dec 02, 2008 07:05 PM

i think its actually a half step down then instead of

|----------------------|---------------------
|----------------------|---------------------
|-5--5--5--2--2--2--3--|-3--3--3--3--3--3--3-
|----------------------|---------------------
i think its
|----------------------|---------------------
|----------------------|---------------------
|-0--0--0--------------|---------------------
|----------2--2--2--3--|-3--3--3--3--3--3--3-

guest
You may want to rate the tab now too:
select rating
Wanna post a correction for this tab? Suggest correction