Oops, an error
Loading. Please wait.

Ready Set Go tab

version 2
version 2

Whole song

Interactive

25,057 views 1 this week
8 commentsread comments
1 2 3 4 5
x 8
add to favorites
×
Save as Personal and add changes to this tab that will be seen only by you. Learn more ›
×
You can save this tab as Personal to edit and correct it or add notes. All changes will be seen only by you. Learn more »
launch autoscroll
font size
0
reset
how to read this tab
guitar tuner
backing track
0:00
0:00
edit
Autoscroll
slow
fast
+/-
esc
set tempo
stop
Author
Artist: Tokio Hotel
Song: Ready, Set, GO! -  Übers Ende Der Welt
Album: Scream - Zimmer 483
Tabs by: kia

INTRO:

|---------|------------|
|---------|------------|
|-------5-|-------5--7-|
|-7--4--5-|-7--4--5--7-|
|-5--2--3-|-5--2--3--5-|
|---------|------------|

VERSE:

[We were running..]

|---------|------------|------------|------|
|---------|------------|------------|------|
|-------5-|-------5--7-|-------5--7-|------|
|-7--4--5-|-7--4--5--7-|-7--4--5--7-|-0--2-|
|-5--2--3-|-5--2--3--5-|-5--2--3--5-|-2--3-|
|---------|------------|------------|-2--3-|

[We learned to live..]

|---------|------------|------------|------|
|---------|------------|------------|------|
|-------5-|-------5--7-|-------5--7-|------|
|-7--4--5-|-7--4--5--7-|-7--4--5--7-|-0--2-|
|-5--2--3-|-5--2--3--5-|-5--2--3--5-|-2--3-|
|---------|------------|------------|-2--3-|

[Too young to live..]

|-----------|
|-----------|
|-----------|
|-2--4--0-0-|
|-3--5--2-2-|
|-3--5--2-2-| x2

CHORUS:

[Ready, Set, GO! It's time to run!..]

|------------|------------|-------------|---------|
|------------|------------|-------------|---------|
|-7--9--5----|-7--9--7--9-|-9-9--5-7--9-|-5--7--4-|
|-7--9--5--5-|-7--9--7--9-|-9-9--5-7--9-|-5--7--4-|
|-5--7--3--5-|-5--7--5--7-|-7-7--3-5--7-|-3--5--2-|
|----------3-|----------0-|-------------|---------|

PRE-VERSE:

[0.58]

|----------|
|-10--7--8-|
|-7---4--5-|
|----------|
|----------|
|----------| x2

VERSE:

[We are looking back again..]

|---------|------------|------------|------|
|---------|------------|------------|------|
|-------5-|-------5--7-|-------5--7-|------|
|-7--4--5-|-7--4--5--7-|-7--4--5--7-|-0--2-|
|-5--2--3-|-5--2--3--5-|-5--2--3--5-|-2--3-|
|---------|------------|------------|-2--3-|

[Breathe slowly..]

|---------|------------|------------|------|
|---------|------------|------------|------|
|-------5-|-------5--7-|-------5--7-|------|
|-7--4--5-|-7--4--5--7-|-7--4--5--7-|-0--2-|
|-5--2--3-|-5--2--3--5-|-5--2--3--5-|-2--3-|
|---------|------------|------------|-2--3-|

[Too young to live..]

|-----------|
|-----------|
|-----------|
|-2--4--0-0-|
|-3--5--2-2-|
|-3--5--2-2-| x2

CHORUS:

[Ready, Set, GO! It's time to run!..]

|------------|------------|-------------|---------|
|------------|------------|-------------|---------|
|-7--9--5----|-7--9--7--9-|-9-9--5-7--9-|-5--7--4-|
|-7--9--5--5-|-7--9--7--9-|-9-9--5-7--9-|-5--7--4-|
|-5--7--3--5-|-5--7--5--7-|-7-7--3-5--7-|-3--5--2-|
|----------3-|----------0-|-------------|---------|

INTERLUDE:

[1.56]

|--------------------------|
|--------------------------|
|--------------------------|
|-4-4--5-5--7-7--4-4-4-5-5-|
|-2-2--3-3--5-5--2-2-2-3-3-|
|--------------------------| x6

[I'll promise you right now..]

|-----------|
|-----------|
|-----------|
|-2--4--0-0-|
|-3--5--2-2-|
|-3--5--2-2-| x3

CHORUS:

[READY, SET, GO IT'S TIME TO RUN!]

        [The sky is changing..]

|-------|------------|-------------|---------|
|-------|------------|-------------|---------|
|-7-7-7-|-7--9--7--9-|-9-9--5-7--9-|-5--7--4-|
|-7-7-7-|-7--9--7--9-|-9-9--5-7--9-|-5--7--4-|
|-5-5-5-|-5--7--5--7-|-7-7--3-5--7-|-3--5--2-|
|-------|----------0-|-------------|---------|

|------------|------------|-------------|---------|
|------------|------------|-------------|---------|
|-7--9--5----|-7--9--7--9-|-9-9--5-7--9-|-5--7--4-|
|-7--9--5--5-|-7--9--7--9-|-9-9--5-7--9-|-5--7--4-|
|-5--7--3--5-|-5--7--5--7-|-7-7--3-5--7-|-3--5--2-|
|----------3-|----------0-|-------------|---------|

[3.05 - Don't you turn around]

|---------|------------|    |---------|
|---------|------------|    |---------|
|-------5-|-------5--7-|    |-------5-|
|-7--4--5-|-7--4--5--7-|    |-7--4--5-|
|-5--2--3-|-5--2--3--5-|    |-5--2--3-|
|---------|------------| x5 |---------|

END:

|---------------|
|---------------|
|-4-4--5-5--7-7-|
|-4-4--5-5--7-7-|
|-2-2--3-3--5-5-|
|---------------|

            
            
Suggest correction
Creating personal tab
Creating personal tab
You can edit any tab online and save it as your Personal.

You can edit, replace or remove any tab part or add personal notes – all changes will be seen only by you.

Personal tabs can be accessed anytime from any device, even offline.
Learn more »
comments
print report bad tab
8 comments total. Showing first comments.
0 reply
SystemFan101 10 Apr 25, 2008 12:53 PM

Is it acurate or what make a vido and put it on you tube

0 reply
SystemFan101 10 May 22, 2008 05:22 PM

i still caant here the song in this song

0 reply
heartstroke=] 10 Sep 04, 2008 08:07 PM

i could kinda hear the song you just need to do the right strumming and youll hear it

guest
You may want to rate the tab now too:
select rating
Wanna post a correction for this tab? Suggest correction