Oops, an error
Loading. Please wait.

Ready Set Go bass

version 3
version 3

Whole song

Interactive

505 views 1 this week
no commentswrite comment
1 2 3 4 5
3 more votes to show rating
add to favorites
×
Save as Personal and add changes to this tab that will be seen only by you. Learn more ›
×
You can save this tab as Personal to edit and correct it or add notes. All changes will be seen only by you. Learn more »
launch autoscroll
font size
0
reset
guitar tuner
backing track
0:00
0:00
edit
Autoscroll
slow
fast
+/-
esc
set tempo
stop
Author
Difficulty
Intro: (only guitar and drums)

(1st verse)
"We were running through the town..."
G--------------------------------------------------------------------------|
D--------------------------------------------------------------------------|
A------6666-222222222---6666-2222-4444----6666-2222-4444-11111111-22222222-|
E---000--------------000--------------0000---------------------------------|

G-----------------------------------------|
D-----------------------------------------|
A------6666-222222222---6666-2222-4444----|
E--000---------------000--------------000-|

G--------------------------------------------|
D--------------------------------------------|
A--6666-2222-4444-11111111-222-6-14-14-14-14-|
E--------------------------------------------|

(no bass in transition)
(chorus)
"Ready set go! It's time to run..."
G------------------------------------------------------------------|
D------------------------------------------------------------------|
A---44-66666-222-----444-6666-2---44444-66666666-22222-4-666666666-|
E---------------22222-----------2----------------------------------|

G--------------------------------------------|
D--------------------------------------------|
A--22222222-44444444-13-13-13-13-13-13-13-13-|
E--------------------------------------------|

(after chorus)

G--------------------------------------|
D--------------------------------------|
A------6666-222222222---6666-2222-4444-|
E---000--------------000---------------|

(2nd verse)
"We are looking back again..."
G--------------------------------------------------------------------------|
D--------------------------------------------------------------------------|
A------6666-222222222---6666-2222-4444----6666-2222-4444-11111111-22222222-|
E---000--------------000--------------0000---------------------------------|

G-----------------------------------------|
D-----------------------------------------|
A------6666-222222222---6666-2222-4444----|
E---000--------------000--------------000-|

G--------------------------------------------|
D--------------------------------------------|
A--6666-2222-4444-11111111-222-6-14-14-14-14-|
E--------------------------------------------|

(chorus)
"Ready set go! It's time to run..."
G------------------------------------------------------------------|
D------------------------------------------------------------------|
A---44-66666-222-----444-6666-2---44444-66666666-22222-4-666666666-|
E---------------22222-----------2----------------------------------|

G--------------------------------------------|
D--------------------------------------------|
A--22222222-44444444-13-13-13-13-13-13-13-13-|
E--------------------------------------------|

(bridge)
G-------------------------------------------------|
D-------------------------------------------------|
A----------------444-14-14---------------222-4-4--|
E--0-0--0-0--0-0-----------0-0--0-0--0-0----------|

Leave it all behind you now, final war is breaking down..."
G--------------------------------------------------|
D--------------------------------------------------|
A----------------444-14-14-----------------222-4-4-|
E--0-0--0-0--0-0-----------0-0--0-0--0-0-----------|

"We are what it's all about, nothing can stop us now..."
G-------------------------------------------------|
D-------------------------------------------------|
A----------------444-14-14---------------444-6----|
E--0-0--0-0--0-0-----------0-0--0-0--0-0----------|

(only guitar and singing)
"I promise you right now, I'll never let you down..."

"Ready set go! It's time to run..."

(chorus)
"The sky is changing, we are one..."
G-----------------------------------------------------------------|
D-----------------------------------------------------------------|
A--22--44-66--2-4444-66666666-22222-4-666666666-22222222-44444444-|
E----2---------2--------------------------------------------------|

"Don't turn around...Ready set go! It's time to run..."
G---------------------------------------------------------------------|
D---------------------------------------------------------------------|
A--13-13-13--44-66-22----44-66-2-4444-66666666-22222-4-66666666-22222-|
E--------------------2222-------2-------------------------------------|
"...is crashing down...don't you turn around."
G-----------------------------------------------------------|
D-----------------------------------------------------------|
A--44444444-13-13-13-13-13-13-13-13-13-13-13-13-13-13-13-13-|
E-----------------------------------------------------------|
"*don't you turn around*"
G--------------------------------------|
D--------------------------------------|
A------6666-222222222---6666-2222-4444-|
E---000--------------000---------------|

G--------------------------------------|
D--------------------------------------|
A------6666-222222222---6666-2222-4444-|
E--000--------------000----------------|

G-----------------------------------|
D-----------------------------------|
A------6666-222222222---44-66-------|
E--000------------------------00----|

Thanks! This is my favorite song and it was a pleasure tabbing it for everybody.  It may 
look hard, but it's very easy and fun to play.  Go Tokio Hotel!
Suggest correction
Creating personal tab
Creating personal tab
You can edit any tab online and save it as your Personal.

You can edit, replace or remove any tab part or add personal notes – all changes will be seen only by you.

Personal tabs can be accessed anytime from any device, even offline.
Learn more »
Give kudos to tab author, rate the tab!
1 2 3 4 5
comments
print report bad tab
guest
You may want to rate the tab now too:
select rating
Wanna post a correction for this tab? Suggest correction