Oops, an error
Loading. Please wait.

Rette Mich tab

version 2
version 2

Whole song

Interactive

4,963 views 1 this week
2 commentsread comments
1 2 3 4 5
x 4
add to favorites
×
Save as Personal and add changes to this tab that will be seen only by you. Learn more ›
×
You can save this tab as Personal to edit and correct it or add notes. All changes will be seen only by you. Learn more »
launch autoscroll
font size
0
reset
how to read this tab
guitar tuner
edit
Autoscroll
slow
fast
+/-
esc
set tempo
stop
Author
There's another tab with the 'arpeggio'. So I wrote the part of distorsion guitar cause 
want to play the whole song. After the second chorus:

...Komm und rette mich...

...dich und mich,                  dich und mich,
E|-------------0------------------|------------0------------------|
B|-------------0------------------|------------0------------------|
G|-------------2------------------|------------5------------------|
D|-------------2------------------|------------5------------------|
A|-------------0------------------|------------3------------------|
E|-------------0------------------|------------0------------------|

...dich und mich,                  dich und mich.
E|-------------0------------------|------------0------------------|
B|-------------0------------------|------------0------------------|
G|-------------7------------------|------------0------------------|
D|-------------7------------------|------------2------------------|
A|-------------5------------------|------------2------------------|
E|-------------0------------------|------------0------------------|

Ich seh noch unsere namen,         und wisch sie wieder weg
E|---0---------------0------------|-----0-------------------------|
B|---0---------------0------------|-----0-------------------------|
G|---5---------------7------------|-----0-------------------------|
D|---5---------------7------------|-----2-------------------------|
A|---3---------------5------------|-----2-------------------------|
E|---0---------------0------------|-----0-------------------------|

unsere Träume war'n gelogen,       und keine Träne echt
E|-------0-------------0----------|-----0-------------------------|
B|-------0-------------0----------|-----0-------------------------|
G|-------5-------------7----------|-----0-------------------------|
D|-------5-------------7----------|-----2-------------------------|
A|-------3-------------5----------|-----2-------------------------|
E|-------0-------------0----------|-----0-------------------------|

hörst du mich,                     hörst du mich nich'!
E|--------0--------------0--------|---------------0---------------|
B|--------0--------------0--------|---------------0---------------|
G|--------2--------------5--------|---------------2---------------|
D|--------2--------------5--------|---------------2---------------|
A|--------0--------------3--------|---------------0---------------|
E|--------0--------------0--------|---------------0---------------|

Komm und rette mich,
E|-------------------------------|
B|------3---------------3--------|
G|----0---0---0-------0---0---0--|
D|--4-------4---4---4-------4---4|
A|3---------------5--------------|
E|-------------------------------|

rette mich
E|-----00000000|00000000---------|
B|-----00000000|00000000---------|
G|-----22222222|22222222---------|
D|-----22222222|22222222---------|
A|-----00000000|00000000---------|
E|-----00000000|00000000---------|

komm und rette mich,               ich verbrenne innerlich
E|--------0-----0-----------------|---------0----------0----------|
B|--------0-----0-----------------|---------0----------0----------|
G|--------5-----7-----------------|---------0----------0----------|
D|--------5-----7-----------------|---------2----------5----------|
A|--------3-----5-----------------|---------2----------5----------|
E|--------0-----0-----------------|---------0----------3----------|

komm und rette mich,               ich schaff's nicht ohne dich
E|--------0-----0-----------------|-------0-----------------------|
B|--------0-----0-----------------|-------0-----------------------|
G|--------5-----7-----------------|-------2-----------------------|
D|--------5-----7-----------------|-------2-----------------------|
A|--------3-----5-----------------|-------0-----------------------|
E|--------0-----0-----------------|-------0-----------------------|

komm und rette mich,
E|--------0-----0-----------------|
B|--------0-----0-----------------|
G|--------5-----7-----------------|
D|--------5-----7-----------------|
A|--------3-----5-----------------|
E|--------0-----0-----------------|

rette mich,                        rette mich,
E|-----0--------------------------|-------0-----------------------|
B|-----0--------------------------|-------0-----------------------|
G|-----2--------------------------|-------5-----------------------|
D|-----2--------------------------|-------5-----------------------|
A|-----0--------------------------|-------3-----------------------|
E|-----0--------------------------|-------0-----------------------|

rette mich,                        rette mich
E|-----0--------------------------|-------0-----------------------|
B|-----0--------------------------|-------0-----------------------|
G|-----7--------------------------|-------2-----------------------|
D|-----7--------------------------|-------2-----------------------|
A|-----5--------------------------|-------0-----------------------|
E|-----0--------------------------|-------0-----------------------|

Sara - Italy
Suggest correction
Creating personal tab
Creating personal tab
You can edit any tab online and save it as your Personal.

You can edit, replace or remove any tab part or add personal notes – all changes will be seen only by you.

Personal tabs can be accessed anytime from any device, even offline.
Learn more »
comments
print report bad tab
2 comments total.
0 reply
IceCreamKitten 31 Oct 22, 2007 08:39 AM

nice!
thank you =]

0 reply
Dark Angel21 31 Aug 30, 2008 05:47 AM

thank you so much for post this tab i love this song and i'm learning the song whit ver 1 and e notice that left the distortion part and here it is

guest
You may want to rate the tab now too:
select rating
Wanna post a correction for this tab? Suggest correction