Oops, an error
Loading. Please wait.

Rette Mich Tab

version 3
version 3

Whole song

Interactive

7,759 views 9 this week
5 commentsread comments
1 2 3 4 5
x 5
add to favorites
launch autoscroll
font size
0
reset
how to read this tab
guitar tuner
Autoscroll
slow
fast
+/-
esc
set tempo
stop
Help us to improve Ultimate-Guitar.com Take our survey!
×
Author
Difficulty
intermediate
-------------------------------------------------------------------------------
                             Rette Mich - Tokio Hotel
-------------------------------------------------------------------------------
Tabbed by: Cynthia Figueroa
Email:Mytokioromancee@hotmail.com

Tuning: Standard

Hello Hello Hello haha
Well this is my 5th Tokio Hotel tab. I'm pretty sure it's 99.9% correct but REMEMBER 
is the version the play live. If you want the studio tab, This isn't the tab for you :D. 
Sunday I'll be posting "Spring Nicht Live" tab kk?

Intro (Guitar):
e|------------------------------------------------------------------------------|
B|--------0-------0----------0-------0----------0------------------0-------0----|
G|------4---4---4----------4---4---4----------4---4---4----------4---4---4------|
D|----2-------2----------2-------2----------2-------2---2------2-------2--------|
A|------------------------------------------------------------------------------|
E|--0------------------0------------------0------------------0------------------|


Verse:
"Zum ersten Mal alleine in unserem Versteck...."
------------------------------------------------------------------------------------------|
--------0----------------------------------------------------------------------------0----|
------4---------0----------0----------0-----------0-----------0-----------0--------4---4--|
----2---------4---4------4---4------4---4-------4---4-------4---4-------4-------/2--------| x2
------------2---------------------------------2-----------3----------\5--------0----------|
--0--------------------3----------2-------------------------------------------------------|


/ = Slide Up
\ = Slide Down


"Ich wollte dir alles anvertrauen..."
----------------------------------------|
--------0-------------------------------|
------4--------0--------0---------0-----|
----2--------4---4----4---4-----4---4---| x2
-----------2----------------------------|
--0-----------------3---------2---------|


Pre-Chorus:
"Komm zuruck nimm mich mit.."
------------------------------------------------------------|
-------0------------------0-------0---------0------------0--|
-----4---4---4----------4---4---4---------4---4---4------4--|
---2-------2---2------2-------2---------2-------2---2----2--|
-0------------------3-----------------0------------------0--|
------------------------------------------------------------|

Chorus:

"Komm und rette mich ich verbrenne innerlich..."
------------------------------------------------------------------------------------|
--------3--------------------3--------------------3--------------------3------------|
------0---0---0------------0---0---0------------0---0---0------------0---0---0------|
----4-------4---4--------4-------4---4--------4-------4---4--------4-------4---4----|
--3--------------------5-----------------------------------------2------------------|
--------------------------------------------0---------------------------------------|


"Komm und rette mich ich Schaff's nicht ohne dich.."
-------------------------------------------------------------------------------|
--------3--------------------3-------------------0-------0----------0-------0--|
------0---0---0------------0---0---0-----------4---4---4----------4---4---4----|
----4-------4---4--------4-------4---4-------2-------2----------2-------2------|
--3--------------------5-------------------------------------------------------|
-------------------------------------------0------------------0----------------|

"Komm und rette mich......."
------------------------------------------|
--------3--------------------3------------|
------0---0---0------------0---0---0------|
----4-------4---4--------4-------4---4----|
--3--------------------5------------------|
------------------------------------------|


"Rette mich.."
"Rette mich.."
---------------------------------------|
--------0------------------------------|
------4--------0--------0---------0----|
----2--------4---4----4---4-----4---4--| x2
-----------2---------------------------|
--0-----------------3---------2--------|

Verse 2:
"Unsere Traume waren gelogen und keine Trane echt..."
---------------------------------------------------------------------------------|
--------0--------------------------------------------------------------------0---|
------4--------0--------0---------0----------0---------0----------0--------4---4-|
----2--------4---4----4---4-----4---4------4---4-----4---4------4-------/2-------| x2
-----------2-----------------------------2---------3---------\5--------0---------|
--0-----------------3---------2--------------------------------------------------|


"Vielleicht horst du irgendwo...."
----------------------------------------|
--------0-------------------------------|
------4--------0--------0---------0-----|
----2--------4---4----4---4-----4---4---| x2
-----------2----------------------------|
--0-----------------3---------2---------|


"Horst du mich horst du mich nicht..."
------------------------------------------------------------|
-------0------------------0-------0---------0------------0--|
-----4---4---4----------4---4---4---------4---4---4------4--|
---2-------2---2------2-------2---------2-------2---2----2--|
-0------------------3-----------------0------------------0--|
------------------------------------------------------------|

Chorus :
"Komm und rette mich ich verbrenne innerlich.."
----------------------------------------------------------------------------------|
--------3--------------------3--------------------3--------------------3----------|
------0---0---0------------0---0---0------------0---0---0------------0---0---0----|
----4-------4---4--------4-------4---4--------4-------4---4--------4-------4---4--|
--3--------------------5-----------------------------------------2----------------|
--------------------------------------------0-------------------------------------|

"Komm und rette mich ich Schaffs nicht ohne dich...."
--------------------------------------------------------------------------------------|
--------3--------------------3-------------------0-------0----------0-------0---------|
------0---0---0------------0---0---0-----------4---4---4----------4---4---4-----------|
----4-------4---4--------4-------4---4-------2-------2----------2-------2-------------|
--3--------------------5--------------------------------------------------------------|
-------------------------------------------0------------------0-----------------------|


"Komm und rette mich......"
------------------------------------------|
--------3--------------------3------------|
------0---0---0------------0---0---0------|
----4-------4---4--------4-------4---4----|
--3--------------------5------------------|
------------------------------------------|


"Rette mich rette mich........"
------------------------------------------------------------------------------------|
--------0-------0----------0-------0--------------3--------------------3------------|
------4---4---4----------4---4---4--------------0---0---0------------0---0---0------|
----2-------2----------2-------2--------------4-------4---4--------4-------4---4----|
--0------------------0----------------------3--------------------3------------------|
------------------------------------------------------------------------------------|


"Rette mich rette mich...."
------------------------------------------------------------------------------------|
--------3--------------------3--------------------0-------0----------0-------0------|
------0---0---0------------0---0---0------------4---4---4----------4---4---4--------|
----4-------4---4--------4-------4---4--------2-------2----------2-------2----------|
--5--------------------5--------------------0------------------0--------------------|
------------------------------------------------------------------------------------|

"Ich seh noch unsere Namen...."
------------------------------------------|
--------3--------------------3------------|
------0---0---0------------0---0---0------|
----4-------4---4--------4-------4---4----|
--3--------------------5------------------|
------------------------------------------|


"Und wisch sie wieder weg......"
----------------------------------------|
--------0-------0----------0-------0----|
------4---4---4----------4---4---4------|
----2-------2----------2-------2--------|
----------------------------------------|
--0------------------0------------------|


"Unsre Traume waren gelogen....."
------------------------------------------|
--------3--------------------3------------|
------0---0---0------------0---0---0------|
----4-------4---4--------4-------4---4----|
--3--------------------5------------------|
------------------------------------------|

"Und keine Trane echt...."
----------------------------------------|
--------0-------0----------0-------0----|
------4---4---4----------4---4---4------|
----2-------2----------2-------2--------|
----------------------------------------|
--0------------------0------------------|


"Horst du mich horst du mich nicht........."
------------------------------------------------------------|
-------0------------------0-------0---------0------------0--|
-----4---4---4----------4---4---4---------4---4---4------4--|
---2-------2---2------2-------2---------2-------2---2----2--|
-0------------------3-----------------0------------------0--|
------------------------------------------------------------|


"Komm und rette mich....."
------------------------------------------|
--------3--------------------3------------|
------0---0---0------------0---0---0------|
----4-------4---4--------4-------4---4----|
--3--------------------5------------------|
------------------------------------------|


"Rette mich....."
------------------------------------------|
------------------------------0--0--------|
------------------------------0--0--------|
---2-2-2-2-2-2-2-2-2-2-2-2----2--2--------|
---0-0-0-0-0-0-0-0-0-0-0-0----0--0--------|
------------------------------------------|

"Komm und rette mich ich verbrenne innerlich...."
--------------0---------------------------------|
---3----------3-----------0---------------------|
---0----------2-----------4------------4--------|
---2----------0-----------2------------4--------|
---3----------------------0------------2--------|
---0--------------------------------------------|


"Komm und rette mich ich Schaffs nicht ohne dich..."
-----------0-----------------0---------|
---3-------3-----------------0---------|
---0-------2-----------------4---------|
---2-------0-----------------2---------|
---3-------------------------0---------|
---0-----------------------------------|


"Komm und rette mich Rette mich..."
-------------0-------------------0------------------|
---3---------3-------------------0------------------|
---0---------2---------0---------0------------------|
---2---------0---------4---------4------------------|
---3-------------------2---------2------------------|
---0-------------------0----------------------------|


"Rette mich Rette mich Rette mich..."
--------0-------------0----------0------------0-----------0----|
---3------3-------------3-----3----3------------3---------0----|
---0----------0---0-----------2-------2----2-----------4--4----|
---2----------2-----2---------0-------0------0---------2--2----|
---3----------3---------------0------------------------0-------|
---0-----------------------------------------------------------|

"Dich und mich horst du mich nicht rette mich...."
------0-----------0----------0------------0---------0--|
---3----3-----------3-----3----3------------3-------0--|
---0------0---0-----------2-------2----2------2-----4--|
---2------2-----2---------0-------0------0------0---2--|
---3------3---------------0-------------------------0--|
---0------------------------------------------------0--|


That's about it:
1. PLEASE DON'T POST ANNOYING COMMENTS SAYING "uhhh dur dats not rite", It's not right? 
how about next time instead of using tabs like a little n00blet, how about you learn it 
ear? ughhhh It just aggravates me.
Suggest correction
comments
print report bad tab
5 comments total. Showing first comments.
+1 reply
Hernaner28 227 Dec 23, 2008 03:48 PM

I don't like this tab, this is so confusing... I rather not seeing it.
Check out the other tabs in the english version. English version tab are better done.
I cant belive, I have just seen 3 tabs and,, I didnt hope this...

+1 reply
Mytokioromance 184 Dec 23, 2008 04:42 PM

what?
dude you're just pissed because your tabs are horrible

0 reply
BlueSteelSG 21 Jan 18, 2009 08:20 PM

you do know that they don't have any songs in standard tuning right?
you can tell there lower just by listening to them, if you have a lot of guitar expirience you should be able to figure that out.

guest
You may want to rate the tab now too:
select rating
Wanna post a correction for this tab? Suggest correction