Oops, an error
Loading. Please wait.

Spring Nicht tab

version 3
version 3

Whole song

Interactive

8,320 views 1 this week
6 commentsread comments
1 2 3 4 5
x 5
add to favorites
×
Save as Personal and add changes to this tab that will be seen only by you. Learn more ›
×
You can save this tab as Personal to edit and correct it or add notes. All changes will be seen only by you. Learn more »
launch autoscroll
font size
0
reset
how to read this tab
guitar tuner
edit
Autoscroll
slow
fast
+/-
esc
set tempo
stop
Difficulty
intermediate
Spring nicht


Intro:   (First guitar)
--------4----------2-----------0-----------------------------|
-----------5----------4-----------2---------4--0--22222222---|
--------------------------------------------------22222222---|
--------------------------------------------------22222222---|
--4----------------------------------------------------------|
-------------------------------------------------------------|

Verse:  First+Second

  (First guitar)
Uber den Dachern,ist es so kalt, und so still...
--------4----------2-----------0-----------------------------|
-----------5----------4-----------2---------4--0--22222222---|
--------------------------------------------------22222222---|x4
--------------------------------------------------22222222---|
--4----------------------------------------------------------|
-------------------------------------------------------------|

  (Second guitar)
------------------------------------------------------------------|
--------5-----------5----------2-----------2----------------------|
------6---6-------6---6------2---2-------2---2--------------------|x4
----6-------6---6-------6---2-------2---2-------2-----------------|
--4-----------4-----------0-----------0---------------------------|
------------------------------------------------------------------|

Chorus:  Prva+Druga

   (First guitar)
Ich schrei in die Nacht für dich,lass mich nicht im Stich,Spring nicht!
-----------000000--000000--000000--|
-----------222222—-444444—-555555--|
-----------222222—-444444—-666666--|
-----------222222—-444444—-666666--|
-----------000000—-222222—-444444--|
-----------------------------------|

Die Lichter fangen dich nicht,sie betrügen dich,Spring nicht
---000000--000000--000000--000000--|
---555555--222222—-444444—-555555--|
---666666--222222—-444444—-666666--|
---666666--222222—-444444—-666666--|
---444444--000000—-222222—-444444--|
-----------------------------------|

erinnern dich,an dich und mich, Die Welt da unten zählt nicht
---000000--000000--000000-----------0--|
---555555--222222--444444-----------2--|
---666666--222222--444444--222222---2--|
---666666--222222--444444--444444---2--|
---444444--000000--222222--444444---0--|
---------------------------222222------|

Bitte spring nicht
--------4----------2-----------0-----------------------------|
-----------5----------4-----------2---------4--0--22222222---|
--------------------------------------------------22222222---|
--------------------------------------------------22222222---|
--4----------------------------------------------------------|
-------------------------------------------------------------|

    (Second guitar)
Ich schrei in die Nacht für dich,lass mich nicht im Stich,Spring nicht! Die Lichter 
dich nicht,sie betrügen dich,Spring nicht!
------------------------------------------------------------|
--------2-----------4-----------5-----------5---------------|
------2---2-------4---4-------6---6-------6---6-------------|  2x
----2-------2---4-------4---6-------6---6-------6-----------|
--0-----------2-----------4-----------4---------------------|
------------------------------------------------------------|

Erinner Dich, an Dich und mich, Die Welt da unten zählt nicht
------------------------------------------------------------|
--------2-----------4-----------------------2---------------|
------2---2-------4---4---------2---------2---2-------------|
----2-------2---4-------4-----4---4-----2-------2-----------|
--0-----------2-------------4---------0---------------------|
--------------------------2----------4----------------------|

bitte, spring nicht...
--0---------------------------------------------------------|
--4----------5-----------5-----------2-----------2----------|
--4--------6---6-------6---6-------2---2-------2---2--------|
--4------6-------6---6-------6---2-------2---2-------2------|
--2----4-----------4-----------0-----------0----------------|
--0---------------------------------------------------------|

Verse:
In deinen Augen,scheint alles sinnlos und leer
Der Schnee fällt einsam,Du spürst ihn schon lange nicht mehr
Irgendwo da draußen,bist du verloren gegangen
Du träumst von dem Ende,um nochmal von vorn anzufangen

Chorus:
Ich schrei in die Nacht für dich,lass mich nicht im Stich
Spring nicht,Die Lichter fangen dich nicht
sie betrügen dich,Spring nicht
erinnern dich,an dich und mich
Die Welt da unten zählt nicht

Bitte spring nicht,Spring nicht!
--000000--000000--|
--222222--444444--|
--222222--444444--|
--222222--444444--|
--000000--222222--|
------------------|

Bridge:  Prva+Druga

     (First guitar)
--4444—-4444--44—-000000--|
--5555—-5555—-55—-222222--|
--6666—-6666--66--222222--|x3
--6666--6666--66--222222--|
--4444--4444--44--000000--|
--------------------------|

     (Second guitar)
--4444—-4444--44-----------------0--|
--5555--5555--55--5--2--5--2--4-----|
--6666--6666--66--------------------|x3
------------------------------------|
------------------------------------|
------------------------------------|

Ich weiss nicht wie lang,ich dich halten kann,Ich weiss nicht wie lang
     (First guitar)
--4444—-4444--44—-000000--|
--5555—-5555—-55—-222222--|
--6666—-6666--66--222222--|x3
--6666--6666--66--222222--|
--4444--4444--44--000000--|
--------------------------|

     (Second guitar)
--4444—-4444--44-----------------0--|
--5555--5555--55--5--2--5--2--4-----|
--6666--6666--66--------------------|x3
------------------------------------|
------------------------------------|
------------------------------------|

Well, you can figure out the end.... I got bored making this tab  :D
Hope you'll enjoy it...
Kiss from Serbia

            
            
Suggest correction
Creating personal tab
Creating personal tab
You can edit any tab online and save it as your Personal.

You can edit, replace or remove any tab part or add personal notes – all changes will be seen only by you.

Personal tabs can be accessed anytime from any device, even offline.
Learn more »
comments
print report bad tab
6 comments total. Showing first comments.
0 reply
milen 53 Nov 30, 2007 08:10 AM

complete wrong tuning

0 reply
zahrasuhardi 10 Dec 25, 2007 05:38 AM

i guess it should be like this way at the
bridge:

e|-----------------------------------------
B|-----------------------------------------
G|---12121212-12121
212-1212--7-0-7-0---0---
D|---12121212-12121212-1212----------4-----
A|---10101010-10101010-1010----------------
E|--
---------------------------------------

0 reply
>BaD.TiGeR< 568 Jan 06, 2008 11:39 AM

va bene così

guest
Wanna post a correction for this tab? Suggest correction