Oops, an error
Loading. Please wait.

Wo Sind Eure Hnde tab

version 2
version 2

Whole song

Interactive

3,247 views 1 this week
2 commentsread comments
1 2 3 4 5
2 more votes to show rating
add to favorites
×
Save as Personal and add changes to this tab that will be seen only by you. Learn more ›
×
You can save this tab as Personal to edit and correct it or add notes. All changes will be seen only by you. Learn more »
launch autoscroll
font size
0
reset
how to read this tab
guitar tuner
edit
Autoscroll
slow
fast
+/-
esc
set tempo
stop
Author
Intro
e---------------------------------|
B-111---------1111111---------1---|
G-222-555-----2222222-555-----2---| 3X
D-222-555-333-2222222-333-333-2-3-|
A-----333-333---------333-333---3-|
E---------111-------------111---5-|


Verse
e---------------------------------|
B-111---------1111111---------1---|
G-222-555-----2222222-555-----2---| 3X
D-222-555-333-2222222-333-333-2-3-|
A-----333-333---------333-333---3-|
E---------111-------------111---5-|

e-----------------------------------------|
B-111---------1111111---------------------|
G-222-555-----2222222-555-----------------|
D-222-555-333-2222222-333-333333333333333-|
A-----333-333---------333-333333333333333-|
E---------111-------------111111111111111-|


Pre-chorus

Mein Kopf ist vol bis oben...
e-------------------------|
B-------------------------|
G-7777-999999-------------|
D-7777-999999-5555-777777-|
A-5555-777777-5555-777777-|
E-------------3333-555555-|

'Höre 1000 Diagnosen......Heute sind wir-
e-------------------|
B-------------------|
G-7777-999999-------|
D-7777-999999-5-----|
A-5555-777777-5-----|
E-------------3(355-| until chorus)

Chorus

-hier
e-----------------------------------------|
B-----------333333333---------------------|
G-444444444-----------444444444-----------|
D-444444444-222222222-444444444-555555555-|  x2
A-222222222-333333333-222222222-555555555-|
E-------------------------------333333333-|

Intro (1x)
Verse
e---------------------------------|
B-111---------1111111---------1---|
G-222-555-----2222222-555-----2---| 
D-222-555-333-2222222-333-333-2-3-|
A-----333-333---------333-333---3-|
E---------111-------------111---5-|

e-----------------------------------------|
B-111---------1111111---------------------|
G-222-555-----2222222-555-----------------|
D-222-555-333-2222222-333-333333333333333-|
A-----333-333---------333-333333333333333-|
E---------111-------------111111111111111-|

Pre-Chorus
Chorus

Heute sind wir hier-wo sind eure Hände-Die Welt bleibt vor der Tür-Wo sind eure Hände- enz..
e---------------------|
B---------------------|
G-444444444-----------|
D-444444444-555555555-|
A-222222222-555555555-|
E-----------333333333-|

Itro

xxLien

            
            
Suggest correction
Creating personal tab
Creating personal tab
You can edit any tab online and save it as your Personal.

You can edit, replace or remove any tab part or add personal notes – all changes will be seen only by you.

Personal tabs can be accessed anytime from any device, even offline.
Learn more »
Give kudos to tab author, rate the tab!
1 2 3 4 5
comments
print report bad tab
2 comments total.
0 reply
lien 30 Jul 14, 2008 10:28 AM

Oops...
The intro is:
e---------------------------------|
B-111---------1111111---------1---|
G-222-555-----2222222-555-----2---|
D-222-555-333-2222222-333-333-2-3-|
A-----333-333---------333-333---3-|
E---------111-------------111---5-|

The last chord was wrong, this is the way it's suposed to be..
Same in the verses..
SORRY![L]
Hope you liked the rest of my tab...

0 reply
Avrill 1,052 Mar 08, 2009 08:25 AM

je kan het ook gewoon veranderen in je tab hoor :)

guest
You may want to rate the tab now too:
select rating
Wanna post a correction for this tab? Suggest correction