Oops, an error
Loading. Please wait.

Denpa Tsuushin Bass Tab

28 views 1 this week
no commentswrite comment
1 2 3 4 5
3 more votes to show rating
add to favorites
launch autoscroll
font size
0
reset
guitar tuner
Autoscroll
slow
fast
+/-
esc
set tempo
stop
Help us to improve Ultimate-Guitar.com Take our survey!
×
Author
Difficulty
advanced
Tokyo Jihen: Denpa Tsuushin

Tuning: Standard


G|-------|
D|-/0-9\-|
A|-------|
E|-------|

[Intro]
G|-------------------------------------------------|
D|----4--24------2(3)45----4--24------2(3)45-------|
A|-----------4-5--------4---------4-5--------------|
E|-------------------------------------------------| x3


G|-----------------------------------------|
D|----4--24------2(3)45----4---------------|
A|-----------4-5--------4-----0--2p0-2h3---|
E|-----------------------------------------|


[Verse 1]
G|-------------------------------------------------|
D|----4--24------2(3)45----4--24------2(3)45-------|
A|-----------4-5--------4---------4-5--------------|
E|-------------------------------------------------| x5

G|---------------------------------------|
D|----4--24------2(3)45----4-----------2-|
A|-----------4-5--------4-----0--2p0-3---|
E|---------------------------------------|


[Verse 2]
G|-------------------------------------------------|
D|----4--24------2(3)45----4--24------2(3)45-------|
A|-----------4-5--------4---------4-5--------------|
E|-------------------------------------------------| x3

G|-------------------------------------------------|
D|----4--24------2(3)45----4--24-------2----11tr12-|
A|-----------4-5--------4---------4-5--------------|
E|-------------------------------------------------|

[Chorus]
G|--------------------------------------------------------------------|
D|--------------------------------------------------------------------|
A|-----------------4--4--4-4--4--4-----------------7--7--7----12\-----|
E|-2--2--2-2--2--2-----------------5--5--5-5--5--5---------0----------|

G|--------------------------------------------------------------------|
D|--------------------------------------------------------------------|
A|-----------------4--4--4-4--4--4-----------------7--7--7-7--7--7----|
E|-2--2--2-2--2--2-----------------5--5--5-5--5--5--------------------|

G|--------------------------------------------------------------------|
D|--------------------------------------------------------------------|
A|---------5--5--5---------7--7--7---------5--5--5---------7--7--7-9\-|
E|-2--2--2---------5--5--5---------2--2--2---------5--5--5------------|


[Post-chorus]
G|-------------------------------------------------------------------------------------------|
D|----------------------------------------------------------------------------------------6\-|
A|--------------------------------------------------1--1-2---2-4---4-5---5-6---6-7---7-8-----|
E|------0-2b3-2-0-2-0-2-4---4-2-3-4--4-3-4-5--5-4-5------------------------------------------|


[Verse 3]
G|----------------------------------------------|
D|----4--24------2(3)45----4--24------2(3)45----|
A|-----------4-5--------4---------4-5-----------|
E|----------------------------------------------| x3


G|------------------------------------11tr12----|
D|----4--24------2(3)45----4--24----------------|
A|-----------4-5--------4---------4/------------|
E|----------------------------------------------|


[Chorus] x1
[Post-chorus] x1


[Bridge]
G|--------------|
D|--------------|
A|--------------|
E|-0-1-2-0-1-2--| 4x

G|-----------------------------9---11---------------------|
D|--------------------------------------------------------|
A|--2---9\4---5-------------------------------------------|
E|-----------------5\0----7----9---10----0h3-3-3-3-3-/12\-|

[Chorus]
G|-----------------------------------------------------------------|
D|-----------------------------------------------------------------|
A|-----------------4-4-4-4-4-4-4-4-----------------7-7-7-7-7-7-7-7-|
E|-2-2-2-2-2-2-2-2-----------------5-5-5-5-5-5-5-5-----------------| x2

G|-----------------------------------------------------------------|
D|-----------------------------------------------------------------|
A|---------5--5--5---------7--7--7---------5--5--5---------7--7--7-|
E|-2--2--2---------5--5--5---------2--2--2---------5--5--5---------| x2


Trash-can ending on F#m



Suggest correction
Give kudos to tab author, rate the tab!
1 2 3 4 5
comments
print report bad tab
guest
You may want to rate the tab now too:
select rating
Wanna post a correction for this tab? Suggest correction