Oops, an error
Loading. Please wait.

Bambi Bass Tab

5,889 views 6 this week
no commentswrite comment
1 2 3 4 5
accurate
x 4
add to favorites
launch autoscroll
font size
0
reset
guitar tuner
Autoscroll
slow
fast
+/-
esc
set tempo
stop
Help us to improve Ultimate-Guitar.com Take our survey!
×
Author
-------------------------------------------------------------------------------
			     Bambi - Tokyo Police Club
-------------------------------------------------------------------------------

Tabbed By : xXa0eXx
e-mail: kidlance96@gmail.com

Tuning: Standard (EADG)

I'm not sure this is exact but it sounds pretty close to me. I don't have
every little detail like where notes are plucked a few times in the verse and
riff or all the little fills but you can figure them out or play whatever...That's 
the fun part anyway :)

Intro/Riff:
G|---------------------------------------------------------------------------|
D|--------2--2-------------2-------------------------------------------------|
A|4--4----------2--4----2-------2--------------------------------------------|
E|---------------------------------------------------------------------------|

Verse:
G|---------------------------------------------------------------------------|
D|---------2--2-------------2------------------------------------------------|
A|4--4--2--------2--4----2-------2-------------------------------------------|
E|---------------------------------------------------------------------------|

Chorus:
G|---------------------------------------------------------------------------|
D|--------2--2-------------2--2--------------2--2-------------2--2-----------|
A|44444422------2--44444422------2--4--4--2--------2--44444422------2--------|
E|---------------------------------------------------------------------------|

Alternate Verse:
G|---------------------------------------------------------------------------|
D|---------2--2--------------2-----------------------------------------------|
A|4--4--2--------2--4--4--2-------2------------------------------------------|
E|---------------------------------------------------------------------------|

G|---------------------------------------------------------------------------|
D|---------2--2--------------------------------------------------------------|
A|4--4--2--------2--4----2---------------------------------------------------|
E|--------------------------0--0---------------------------------------------|

Bridge: Ride the E (7th fret) for 7 measures then slide to the B (2nd fret)
G|---------------------------------------------------------------------------|
D|---------------------------------------------------------------------------|
A|2/77777777(7 measures)\22222222--------------------------------------------|
E|---------------------------------------------------------------------------|

Outro:
G|---------------------------------------------------------------------------|
D|---------2--2--------------------------------------------------------------|
A|4--4--2--------2-----------------------------------------------------------|
E|---------------------------------------------------------------------------|

Order of Parts:
Intro/Riff x2
Verse x2
Intro/Riff x1
Verse x2
Chorus x1
Intro/Riff x2
Alternate Verse x1
Chorus x1
Rest during the riff following this chorus and slide into the bridge
Bridge x1
Chorus x1
Outro x4

Well that's it. I may update if I decide to figure out the little riffs
and such, but then again I may not :) I think this is pretty close anyway
so you should be fine ... Enjoy! :)

| /  slide up
| \  slide down
| h  hammer-on
| p  pull-off
| ~  vibrato
| +  harmonic
| x  Mute note
===============================================================================
Suggest correction
comments
print report bad tab
guest
You may want to rate the tab now too:
select rating
Wanna post a correction for this tab? Suggest correction