Oops, an error
Loading. Please wait.

Cheer It On Tab

version 2
version 2

Whole song

Interactive

8,700 views 1 this week
12 commentsread comments
1 2 3 4 5
excellent!
x 7
add to favorites
launch autoscroll
font size
0
reset
how to read this tab
guitar tuner
Tab Pro tools
  • play this tab
  • loop segment
  • change instrument
  • show fretboard
  • metronome
×
Best way to learn
"Cheer It On"
Autoscroll
slow
fast
+/-
esc
set tempo
stop
Contributor
Difficulty
novice
This is my first tab. I think it's a good song and the other tab submitted is clearly
- completely wrong key and everything! Watching the video helped me figure out where to
it on the neck, and though you can't really see the chords for the chorus too easily in 
video I think these are right.

Verse
e|---------------5-5---------7-7-7-7-----------------------------------------|
B|-----------7-7-----8-8-8-8-------------------------------------------------|
G|---5-5-5-5-----------------------------------------------------------------|
D|---------------------------------------------------------------------------|
A|---------------------------------------------------------------------------|
E|---------------------------------------------------------------------------|


Chorus
      F  Dm          G  Am
e|----0--1-----------3--0----------------------------------------------------|
B|----1--3-----------0--1----------------------------------------------------|
G|----2--2-----------0--2----------------------------------------------------|
D|----3--0-----------0--2----------------------------------------------------|
A|---------------------------------------------------------------------------|
E|---------------------------------------------------------------------------|


Bridge (effect used here, I think just reverb and rapid picking)
e|----10----8----7----8----10----8----7----5---------------------------------|
B|---------------------------------------------------------------------------|
G|---------------------------------------------------------------------------|
D|---------------------------------------------------------------------------|
A|---------------------------------------------------------------------------|
E|---------------------------------------------------------------------------|

Outro (same effect as bridge)

e|----10----8----7----8----10----8----7----5------(play twice)-----------------|
B|-----------------------------------------------------------------------------|
G|-----------------------------------------------------------------------------|
D|-----------------------------------------------------------------------------|
A|-----------------------------------------------------------------------------|
E|-----------------------------------------------------------------------------|

e|----20----19----17-(slide down and end)--------------------------------------|
B|-----------------------------------------------------------------------------|
G|-----------------------------------------------------------------------------|
D|-----------------------------------------------------------------------------|
A|-----------------------------------------------------------------------------|
E|-----------------------------------------------------------------------------|


Enjoy!

Ratings and feedback welcome.
comments
print report bad tab
12 comments total. Showing first comments. show 1 bad comment
+1 reply
Redriff wrote on April 10 2007, 06:03 am

OK, I made a slight mistake, Outro should be:

e|10----8----7----8----10----8----7----5----|

(slide)
e|10----8----7----8----20----19----17----(slide down and end)|

+2 reply
Redriff wrote on May 12 2007, 01:34 pm

"Wow, that just sounds plain terrible. Worse than the other one."

Um, thanks. Hardly constructive, are you? You've created a profile just to attack my tab... Grow up, my tab is fine. Actually, my tab is really accurate. The other one is less accurate. FACT.

I want to post or [tab]
guest
You may want to rate the tab now too:
select rating
Please do not post tabs as comments. Select "correction" instead!