Oops, an error
Loading. Please wait.

End Of A Spark Tab

version 1
version 1

Acoustic

Whole song

Interactive

8,643 views 12 this week
1 commentread comment
1 2 3 4 5
excellent!
x 5
add to favorites
launch autoscroll
font size
0
reset
how to read this tab
guitar tuner
Autoscroll
slow
fast
+/-
esc
set tempo
stop
Help us to improve Ultimate-Guitar.com Take our survey!
×
Author
Song: End of a Spark
Artist: Tokyo Police CLub
Tuning: Standard

Just a few notes: the riff played at the beginning and during the chorus is pretty much 
arpeggiated G6 chord (030023)
and i'm 100% about everything except for the last part, i think it's right but i'm not 
sure
Enjoy and please rate and comment!

e|------------------------------------------|
B|--3--0----0--------------3---0----0-------|
G|--------2-------0----------------2----0---|
D|--------------2----------------------2----|
A|------------------------------------------|
E|3--3--3-----3----------3---3---3----3-----|

e|---------------------------------------|
B|-------0--------0----------------------|
G|-----0--0-0----0--0-0---------------0--|
D|---------------------------------0---0-|
A|--/5--5--5---3---3--3------------------|
E|-------------------------3-3-3-3--3----|

Em              G6           C
spend all our Sundays in a row
Em              G6                  C
ten feet from Chinatown, like it's dead but we know
Em                         G6
'cause when he put you to bed
        C
your great-grandfather always said
Em             G6
wasting is an art

        e|------------------|
        B|------------------|
        G|-5-4-2-0---0-2-0--|
        D|---------2--------|
        A|------------------|
        E|------------------|
like the nights we spent in backs of cars

e|-------------------------------------------|
B|---3--0----0--------------3---0----0-------|
G|---------2-------0----------------2----0---|
D|---------------2----------------------2----|
A|-------------------------------------------|
E|-3--3--3-----3----------3---3---3----3-----|
                   a piece of the part

e|-----------------------|
B|-------0--------0------|
G|-----0--0-0----0--0--0-|
D|-----------------------|
A|--/5--5--5---3---3--3--|
E|-----------------------|
   the end of a spark

e|-------------------------------------------|
B|---3--0----0--------------3---0----0-------|
G|---------2-------0----------------2----0---|
D|---------------2----------------------2----|
A|-------------------------------------------|
E|-3--3--3-----3----------3---3---3----3-----|
                   a piece of the part

e|-----------------------|
B|-------0--------0------|
G|-----0--0-0----0--0--0-|
D|-----------------------|
A|--/5--5--5---3---3--3--|
E|-----------------------|
   the end of a spark
e|---------------------------------------|
B|-------0--------0----------------------|
G|-----0--0-0----0--0--0-------------0---|
D|---------------------------------0--0--|
A|--/5--5--5---3---3--3------------------|
E|-------------------------3-3-3-3--3----|
   a spark


Em        G6                C
under our bed, a monster lives
Em           G6                 C
we fight his teeth with superglue and paper clips
Em                   G6
mark the end of an age
      c
the way that your handwriting changed
Em                     G6
we should always pretend

        e|------------------|
        B|------------------|
        G|-5-4-2-0---0-2-0--|
        D|---------2--------|
        A|------------------|
        E|------------------|
well, you just start and I'll say when

e|-------------------------------------------|
B|---3--0----0--------------3---0----0-------|
G|---------2-------0----------------2----0---|
D|---------------2----------------------2----|
A|-------------------------------------------|
E|-3--3--3-----3----------3---3---3----3-----|
                   a piece of the part

e|-----------------------|
B|-------0--------0------|
G|-----0--0-0----0--0--0-|
D|-----------------------|
A|--/5--5--5---3---3--3--|
E|-----------------------|
   the end of a spark

e|-------------------------------------------|
B|---3--0----0--------------3---0----0-------|
G|---------2-------0----------------2----0---|
D|---------------2----------------------2----|
A|-------------------------------------------|
E|-3--3--3-----3----------3---3---3----3-----|
                   a piece of the part

e|-----------------------|
B|-------0--------0------|
G|-----0--0-0----0--0--0-|
D|-----------------------|
A|--/5--5--5---3---3--3--|
E|-----------------------|
   the end of a spark
e|--------------------------|
B|-------0--------0---------|
G|-----0--0-0----0--0--0----|
D|--------------------------|
A|--/5--5--5---3---3--3-----|
E|--------------------------|
   a spark
Bm                   D
when he put you to bed
      C
your great-grandfather always said
Bm              D
wasting is an art
         (P.M.) C
well, it's a good thing that I was young then

Em G6 C C Em G6 C
Ooooh    Ooooh

Em
I am a gear
G6              C
I am a spool of thread
Bm                        D
as long as my teeth, they turn
                   C
we will always be newlyweds
Em
the end of spark
G6                C
a flash in the dark
Bm                D
a piece of the part

     C
it's the end of a spark
e|------------------------------------------|
B|--3--0----0--------------3---0----0-------|
G|--------2-------0----------------2----0---|
D|--------------2----------------------2----|
A|------------------------------------------|
E|3--3--3-----3----------3---3---3----3-----|

e|---------------------------|
B|-------0--------0----------|
G|-----0--0-0----0--0-0------|
D|---------------------------|
A|--/5--5--5---3---3--3------|
E|---------------------------|

e|------------------------------------------|
B|--3--0----0--------------3---0----0-------|
G|--------2-------0----------------2----0---|
D|--------------2----------------------2----|
A|------------------------------------------|
E|3--3--3-----3----------3---3---3----3-----|

e|-----------------------|
B|-------0--------0------|
G|-----0--0-0----0--0-0--|
D|-----------------------|
A|--/5--5--5---3---3--3--|
E|-----------------------|

                 Am7 Bm C D C
a piece of the part
C            D    C
the end of a spark
  D    C
a spark
  D    C
a spark

e|----------------------|
B|---3--0----0----------|
G|---------2-------0----|
D|---------------2------|
A|----------------------|
E|-3--3--3-----3--------|
Suggest correction
What's this?
You can suggest a correction to this tab. Community and Mods will review your correction and vote to approve or reject it.
comments
print report bad tab
1 comment total.
+1 reply
dm_rick 95 wrote on July 28 2010, 06:27 pm


e|-----------------------|
B|--3--0----0------------|
G|--------2---2-0-----0--|
D|------------------2----|
A|-----------------------|
E|3--3--3----------3-----|

that sounds right to me

guest
You may want to rate the tab now too:
select rating
Please do not post tabs as comments. Select "correction" instead!