Oops, an error
Loading. Please wait.

Favourite Colour Bass Tab

version 1
version 1

Whole song

Interactive

1,311 views 6 this week
3 commentsread comments
1 2 3 4 5
x 3
add to favorites
launch autoscroll
font size
0
reset
guitar tuner
Autoscroll
slow
fast
+/-
esc
set tempo
stop
Help us to improve Ultimate-Guitar.com Take our survey!
×
Author
Difficulty
novice
-------------------------------------------------------------------------------
                             FAVOURITE COLOUR - Tokyo Police Club
-------------------------------------------------------------------------------
Tabbed by: Michael
Email: mmcguire1095@yahoo.com

This is a really cool song by a great band. No one had the tab up, so I figured
I'd just do it myself.This is my first real tab, so go easy on me. It may not be
perfect, so any suggestions/corrections are welcome. But, it should be
correct for the most part.

Someone else suggested this intro as well, not sure if I like it though, but 
you can decide that for yourself. You would also play this after the first chorus
G|---------------------------------------|
D|13-10----------------------------------|
A|------13-11----------------------------|
E|-------------13-11---------------------|

Tuning: Standard

INTRO
G|---------------------------------------------------------------------------|
D|---------------------------------------------------------------------------|
A|-11-8-6-4-1----------------------------------------------------------------|
E|-------------4-------------------------------------------------------------|

VERSE 1 (played 4 times)
G|---------------------------------------------------------------------------|
D|---------------------------------------------------------------------------|
A|-----------------------------------8-8-8-8-8-8-8-8-8--4-4-4-4-4-4-4-4------|
E|-4-4-4-4-4-4-4-4-4-4-4-4-4-4-4-4-------------------------------------------|

CHORUS (played 2 times)
G|---------------------------------------------------------------------------|
D|---------------------------------------------------------------------------|
A|----------------6---4-4-4---4-4-4--6--6------------------------------------|
E|-4-4-4---4-4-4-------------------------------------------------------------|

INTRO (played after 1st chorus)
G|---------------------------------------------------------------------------|
D|---------------------------------------------------------------------------|
A|-11-8-6-4-1----------------------------------------------------------------|
E|-------------4-------------------------------------------------------------|

VERSE 2 (played 2 times)
G|---------------------------------------------------------------------------|
D|---------------------------------------------------------------------------|
A|-----------------------------------8-8-8-8-8-8-8-8-8--4-4-4-4-4-4-4-4------|
E|-4-4-4-4-4-4-4-4-4-4-4-4-4-4-4-4-------------------------------------------|

FILL 
G|---------------------------------------------------------------------------|
D|-10-10-10-10-10-10-10-10-13-13-13-13-13-13-13-13---------------------------|
A|---------------------------------------------------------------------------|
E|---------------------------------------------------------------------------|

VERSE 3 (played 2 times)
G|---------------------------------------------------------------------------|
D|---------------------------------------------------------------------------|
A|-----------------------------------8-8-8-8-8-8-8-8-8--4-4-4-4-4-4-4-4------|
E|-4-4-4-4-4-4-4-4-4-4-4-4-4-4-4-4-------------------------------------------|

CHORUS 2 (played 3 times)
G|---------------------------------------------------------------------------|
D|---------------------------------------------------------------------------|
A|----------------6---4-4-4---4-4-4--6--6------------------------------------|
E|-4-4-4---4-4-4-------------------------------------------------------------|

FILL (leading into solo)
G|---------------------------------------------------------------------------|
D|-10-10-10-10-10-10-10-10-13-13-13-13-13-13-13-13---------------------------|
A|---------------------------------------------------------------------------|
E|---------------------------------------------------------------------------|

SOLO (same thing as verse)
G|---------------------------------------------------------------------------|
D|---------------------------------------------------------------------------|
A|-----------------------------------8-8-8-8-8-8-8-8-8--4-4-4-4-4-4-4-4------|
E|-4-4-4-4-4-4-4-4-4-4-4-4-4-4-4-4-------------------------------------------|

CHORUS 3 (played 4 times)
G|---------------------------------------------------------------------------|
D|---------------------------------------------------------------------------|
A|----------------6---4-4-4---4-4-4--6--6------------------------------------|
E|-4-4-4---4-4-4-------------------------------------------------------------|

FILL
G|---------------------------------------------------------------------------|
D|-10-10-10-10-10-10-10-10-13-13-13-13-13-13-13-13---------------------------|
A|---------------------------------------------------------------------------|
E|---------------------------------------------------------------------------|

OUTRO
G|---------------------------------------------------------------------------|
D|---------------------------------------------------------------------------|
A|-11-8-6-4-1----------------------------------------------------------------|
E|-------------4-------------------------------------------------------------|


| /  slide up
| \  slide down
| h  hammer-on
| p  pull-off
| ~  vibrato
| +  harmonic
| x  Mute note
===============================================================================
Suggest correction
Give kudos to tab author, rate the tab!
1 2 3 4 5
comments
print report bad tab
3 comments total.
0 reply
fleet13 458 May 17, 2013 10:35 AM

G|---------------------------------------|
D|13-10----------------------------------|
A|------13-11----------------------------|
E|-------------13-11---------------------|

G|---------------------------------------------------|
D|--6666-6666------------------6666------------------|
A|------------8888-4444------------8888-4444-4444----|
E|---------------------------------------------------|

G|---------------------------------------------------|
D|--6-6-6---6-6-6------------------------------------|
A|----------------6-4-4-4---4-4-4-6-6----------------|
E|---------------------------------------------------|

and then the last verse is different but couldn't work it out, would be glad if someone does that

0 reply
mmcguire1095 88 Sep 19, 2014 11:52 AM

I dunno man, that doesn't sound right to me for the verse/chorus. I don't think it should be up that high? I like your intro better though. Will add that to the tab now!

0 reply
flip_longley8 10 Jul 08, 2016 03:13 PM

I feel like the into goes
G|---------------------------------------|
D|11-10-8-6------------------------------|
A|----------8-6--------------------------|
E|---------------------------------------|

guest
You may want to rate the tab now too:
select rating
Wanna post a correction for this tab? Suggest correction