Oops, an error
Loading. Please wait.

Favourite Colour Tab

version 2
version 2

Whole song

Interactive

2,065 views 3 this week
no commentswrite comment
1 2 3 4 5
excellent!
x 4
add to favorites
launch autoscroll
font size
0
reset
how to read this tab
guitar tuner
Autoscroll
slow
fast
+/-
esc
set tempo
stop
Help us to improve Ultimate-Guitar.com Take our survey!
×
Author
Tokyo Police Club - Favourite Colour

Enjoy, and check out my multi-instrument cover here:
http://www.youtube.com/watch?v=MugIVFr_VLA

Intro:

(Guitar)
e|-4-4-4-4-4-4--|
B|-4-4-4-4-4-4--|
G|-5-5-5-5-5-5--|
D|-6-6-6-6-6-6--|
A|-6-6-6-6-6-6--|
E|-4-4-4-4-4-4--|

(Bass)
G|-6-5----------|
D|-----8-6------|
A|---------8-6--|
E|--------------|


Verse:

Bass (with Keys)
G|-------------------------------------|
D|-6666666666666666--------------------|
A|------------------88888888-44444444--|
E|-------------------------------------|

G|-------------------------------------|
D|-666666666---------------------------|
A|-----------8888888-4444444444444444--|  x2
E|-------------------------------------|

Guitar
e|-----11-8---------------11-8------------|
B|----------11-9---------------11-9-------|
G|-8-8-----------10-8-8-8-----------10-10-|
D|----------------------------------------|
A|----------------------------------------|
E|----------------------------------------|

e|-------11-8------------------11-8--------------|
B|------------11-9------------------11-9---------|
G|-10-10-----------10-10-10-10-----------10-8-8--|
D|-----------------------------------------------| x2
A|-----------------------------------------------|
E|-----------------------------------------------|

Chorus:

e|-------------------------------------------------------------|
B|-------------------------------------------------------------|
G|-10-10-10--------10-10-10----8----6-6-6--------6-6-6----8-8--|
D|-10-10-10--------10-10-10----8----6-6-6--------6-6-6----8-8--|  x2
A|-8--8--8---------8--8--8-----6----4-4-4--------4-4-4----6-6--|
E|-------------------------------------------------------------|

Bass
G|-------------------------------------------------------------|
D|-------------------------------------------------------------|
A|-8--8--8---------8--8--8-----3----4-4-4--------4-4-4----6-6--|  x2
E|-------------------------------------------------------------|


Repeat Intro

Repeat Verse

Bridge A:

Bass
G|--------------------|
D|----------88888888--|
A|-66666666-----------|
E|--------------------|

Guitar
e|--------------------|
B|--------------------|
G|-55555555-88888888--|
D|--------------------|
A|--------------------|
E|--------------------|


Pre-Chorus

Bass
G|-----------------------------------------|
D|-6666666666------------------------------|
A|------------888-6666-444444444-----------|
E|-------------------------------666-4444--|

G|-------------------------------------------------|
D|-------------------------------------------------|
A|-------------------------------------------------|
E|-111-3333-4444-6666-8888-9999-11-11-11-11-11-11--|

Guitar
e|-----------------------------------------|
B|-13---13---13---13---14---14---16---16---|
G|-----------------------------------------|
D|-----------------------------------------|  x2
A|-----------------------------------------|
E|-----------------------------------------|


Repeat Chorus

Lead Guitar (second part of second chorus)
e|---------11---------11--11-------------8----------8----------|
B|----9-------------9-----------------------------------11-11--|
G|-10---10-------10----------------10------------10------------|
D|------------------------------11----11------11---------------|
A|-------------------------------------------------------------|
E|-------------------------------------------------------------|


Repeat Bridge A

Bridge B:

Guitar
e|------------------------------------------------------------------|
B|------------------------------------------------------------------|
G|-11111111-13-13-13-13-13-13-13-13-8888-55555555-10-10-10-10-8888--|
D|------------------------------------------------------------------|
A|------------------------------------------------------------------|
E|------------------------------------------------------------------|

e|------------------------------------------------------------------|
B|------------------------------------------------------------------|
G|-11111111-13-13-13-13-13-13-13-13-8888-55555555-17-17-17-17-17----|
D|------------------------------------------------------------------|
A|------------------------------------------------------------------|
E|------------------------------------------------------------------|


Repeat Chorus w/ Lead Guitar Line

Guitar
e|-11------11-/13-11------8-11----------------------8------------------------|
B|-------9--------------9------9----9-----9----9-11---11----11-9-11-------9--|
G|----10-------------------------10---------10----------------------10-------|
D|---------------------------------------------------------------------11----|
A|---------------------------------------------------------------------------|
E|---------------------------------------------------------------------------|


Outro
e|-------------------------------------------------4---4---4---4---4-----|
B|-11-11-11-11-11-11-11-11-13-13-13-13-13-13-13-13-4---4---4---4---4-----|
G|-------------------------------------------------5---5---5---5---5-----|
D|-------------------------------------------------6---6---6---6---6-----|
A|-------------------------------------------------6---6---6---6---6-----|
E|-------------------------------------------------4---4---4---4---4-----|
Suggest correction
comments
print report bad tab
guest
You may want to rate the tab now too:
select rating
Please do not post tabs as comments. Select "correction" instead!