Oops, an error
Loading. Please wait.

Hang Your Heart tab

121 views 12 this week
no commentswrite comment
1 2 3 4 5
x 3
add to favorites
×
Save as Personal and add changes to this tab that will be seen only by you. Learn more ›
×
You can save this tab as Personal to edit and correct it or add notes. All changes will be seen only by you. Learn more »
launch autoscroll
font size
0
reset
how to read this tab
guitar tuner
edit
Autoscroll
slow
fast
+/-
esc
set tempo
stop
 [Intro] 
e|-----------------------------------------|---------------|-------------------|
B|-----------------------------------------|---------------|-------------------|
G|---12p10----10------------10----------10-|---------------|-------------------|
D|--------h12----12-8h10/12-----10h12------|-8-------------|-------------------|
A|-----------------------------------------|---------------|-10p8h10-----------|
E|-----------------------------------------|---------------|-------------------|

e|-----------------------------------------|-----------------------------------|
B|-----------------------------------------|-----------------------------------|
G|---12p10----10------------10----------10-|-----------------------------------|
D|--------h12----12-8h10/12-----10h12------|-8---------------------------------|
A|-----------------------------------------|-----------------------------------|
E|-----------------------------------------|-----------------------------------|

e|-----------------------------------------|---------------|-------------------|
B|-----------------------------------------|---------------|-------------------|
G|---12p10----10------------10----------10-|---------------|-------------------|
D|--------h12----12-8h10/12-----10h12------|-8-------------|-------------------|
A|-----------------------------------------|---------------|-10p8h10-----------|
E|-----------------------------------------|---------------|-------------------|


 [Verse]
e|----------------------|
B|----------------------|
G|----------------------|  No guitar
D|----------------------|  in the 
A|----------------------|  first verse...
E|----------------------|


 [Chorus]

    Gm    F  Bb    F   Eb         Eb F    Gm     F   Bb    F   Eb
e|--3-----5--6-----8---6----------6--8--|-10-----8---6-----8---6-------------|
B|--3-----5--6-----10--8----------8--10-|-11-----10--6-----10--8-------------|
G|--3-----4--7-----10--8----------8--10-|-12-----10--7-----10--8-------------|
D|--5-----3--8-----10--8----------8--10-|-12-----10--8-----10--8-------------| x2
A|--5-----3--8-----8---6----------6--8--|-10-----8---8-----8---6-------------|
E|--3-----1--6-----8---6----------6--8--|--------8---6-----8---6------8-p6h8-|


 [Verse] 
e|-------------------------------|-------------------------------|   ---| 
B|----15----15----15----15----15-|-------------------------------|      |
G|-------------------------------|----15----15----15----15----15-|      |  ** Verse is easiest
D|--15----15----15----15----15---|--12----12----12----12----12---|      |     played using     
A|-------------------------------|-------------------------------|      |     fingers instead    
E|-------------------------------|-------------------------------|      |     of a pick.    
e|-------------------------------|-------------------------------|      |
                                                                        |            
e|-------------------------------|-------------------------------|      |           
B|-------------------------------|-------------------------------|      |  ** All bottom notes     
G|----12----12----12----12----12-|----12----12----12----12----12-|      |     are played         
D|--12----12----12----12----12---|--12h13-13----13----12----12---|      |     softer than the
A|-------------------------------|-------------------------------|      |     top notes.
E|-------------------------------|-------------------------------|      |
                                                                        | x2
e|-------------------------------|-------------------------------|      |
B|-------------------------------|-------------------------------|      |
G|-------------------------------|----15----15----15----15----15-|      |
D|----12----12----12----12----12-|-------------------------------|      |
A|--13----13----13----13----13---|--13----13----13----13----13---|      |
E|-------------------------------|-------------------------------|      |
                                                                        |
e|-------------------------------|-------------------------------|      |
B|-------------------------------|-------------------------------|      |
G|----12----12----12----12----12\|-------------------------------|      |
D|-------------------------------|----13----13----13----12----10-|      |
A|--13----13----13----13----13---|--10----10----10----10----10---|      |
E|-------------------------------|-------------------------------|   ---|

                                e|-------------------------------| 
                                B|----16----16----16----15----13-|  On second time through
                                G|--15----15----15----15----15---|  the verse, play this  
                                D|-------------------------------|  at the end instead of    
                                A|-------------------------------|  the last bar above...    
                                E|-------------------------------|


 [Chorus]

    Gm    F  Bb    F   Eb         Eb F    Gm     F   Bb    F   Eb
e|--3-----5--6-----8---6----------6--8--|-10-----8---6-----8---6-------------|
B|--3-----5--6-----10--8----------8--10-|-11-----10--6-----10--8-------------|
G|--3-----4--7-----10--8----------8--10-|-12-----10--7-----10--8-------------|
D|--5-----3--8-----10--8----------8--10-|-12-----10--8-----10--8-------------| x2
A|--5-----3--8-----8---6----------6--8--|-10-----8---8-----8---6-------------|
E|--3-----1--6-----8---6----------6--8--|--------8---6-----8---6------8-p6h8-|


 [Bridge]  
e|------|------------------------------------------------------------------------------------|
B|------|------------------------------------------------------------------------------------|
G|------|------------------------------------------------------------------------------------|
D|-12-12|8--8--8--8--8--8--8--8--8--8--8--8--8--8--8--8--8--8--8--8--8--8--8--8--8--8--8--8--|
A|-13-13|10-10-10-10-10-10-10-10-10-10-10-10-10-10-10-10-10-10-10-10-10-10-10-10-10-10-10-10-|
E|------|------------------------------------------------------------------------------------|

e|------------|------------------------------------------------|
B|------------|------------------------------------------------|
G|------------|------------------------------------------------|
D|-12-12-12-12|10-10-10-10-10-10-10-10-10-10-10-10-10-10-10-10-|
A|-13-13-13-13|12-12-12-12-12-12-12-12-12-12-12-12-12-12-12-12-|
E|------------|------------------------------------------------|

e|------------------------|------------------------|
B|------------------------|------------------------|
G|------------------------|------------------------|
D|-15-15-15-15-15-15-15-15|17-17-17-17-17-17-17-17-|
A|-15-15-15-15-15-15-15-15|17-17-17-17-17-17-17-17-|
E|------------------------|------------------------|

e|-------------------------------------------------------------------------------------|
B|-------------------------------------------------------------------------------------|
G|-------------------------------------------------------------------------------------|
D|-8--8--8--8--8--8--8--8--8--8--8--8--8--8--8--8--8--8--8--8--8--8--8--8--8--8--8--8--|
A|-10-10-10-10-10-10-10-10-10-10-10-10-10-10-10-10-10-10-10-10-10-10-10-10-10-10-10-10-|
E|-------------------------------------------------------------------------------------|

e|------------|------------------------------------------------|
B|------------|------------------------------------------------|
G|------------|------------------------------------------------|
D|-12-12-12-12|10-10-10-10-10-10-10-10-10-10-10-10-10-10-10-10-|
A|-13-13-13-13|12-12-12-12-12-12-12-12-12-12-12-12-12-12-12-12-|
E|------------|------------------------------------------------|

e|------------------------|------------------------|
B|------------------------|------------------------|
G|------------------------|------------------------|
D|-15-15-15-15-15-15-15-15|17-17-17-17-17-17-17\---|
A|-15-15-15-15-15-15-15-15|17-17-17-17-17-17-17\---|
E|------------------------|------------------------|

e|-------------------------------------------------------------------------|   --|
B|-------------------------------------------------------------------------|     |
G|-------------------------------------------------------------------------|     |
D|-8--8--8--8--8--8--8--8--8--8--8--8--8--8--8--8--8--8--8--8--8--8--8--8--|     |
A|-10-10-10-10-10-10-10-10-10-10-10-10-10-10-10-10-10-10-10-10-10-10-10-10-|     |
E|-------------------------------------------------------------------------|     |
                                                                                 |
e|------------|------------------------------------------------|                 |
B|------------|------------------------------------------------|                 |
G|------------|------------------------------------------------|                 | x2
D|-12-12-12-12|10-10-10-10-10-10-10-10-10-10-10-10-10-10-10-10-|                 |
A|-13-13-13-13|12-12-12-12-12-12-12-12-12-12-12-12-12-12-12-12-|                 | OR PLAY 
E|------------|------------------------------------------------|                 | ONCE THEN
                                                                                 | PLAY THE
e|------------------------|------------------------|                             | PART
B|------------------------|------------------------|                             | BELOW
G|------------------------|------------------------|                             |
D|-15-15-15-15-15-15-15-15|12-12-12-12-12-12-12-12-|                             |
A|------------------------|------------------------|                             |
E|-13-13-13-13-13-13-13-13|10-10-10-10-10-10-10-10-|                           --|

                                

e|---------------------------------------------------------------------------|
B|--11-11-11-11-11-11-11-11-11-11-11-11-11-11-11-11-11-11-11-11-11-11-11-11--|
G|---------------------------------------------------------------------------|
D|---------------------------------------------------------------------------|
A|---------------------------------------------------------------------------|
E|---------------------------------------------------------------------------|

e|------------|------------------------------------------------|
B|-15-15-15-15|13-13-13-13-13-13-13-13-13-13-13-13-13-13-13-13-|
G|------------|------------------------------------------------|
D|------------|------------------------------------------------|
A|------------|------------------------------------------------|
E|------------|------------------------------------------------|

e|------------------------|------------------------|
B|-18-18-18-18-18-18-18-18|20-20-20-20-20-20\------|
G|------------------------|------------------------|
D|------------------------|------------------------|
A|------------------------|------------------------|
E|------------------------|------------------------|

e|-------------------------------------------------------------------------------------|
B|-11-11-11-11-11-11-11-11-11-11-11-11-11-11-11-11-11-11-11-11-11-11-11-11-11-11-11-11-|
G|-------------------------------------------------------------------------------------|
D|-------------------------------------------------------------------------------------|
A|-------------------------------------------------------------------------------------|
E|-------------------------------------------------------------------------------------|

e|------------|------------------------------------------------|
B|-15-15-15-15|13-13-13-13-13-13-13-13-13-13-13-13-13-13-13-13-|
G|------------|------------------------------------------------|
D|------------|------------------------------------------------|
A|------------|------------------------------------------------|
E|------------|------------------------------------------------|

e|--------------------------------------------|
B|-18-18-18-18-18-18-/-20-20-20-20-20-20-20---|
G|--------------------------------------------|
D|--------------------------------------------|
A|--------------------------------------------|
E|--------------------------------------------|


 [Interlude]
e|-----------------------------------------|-----------------------------------|
B|-----------------------------------------|-----------------------------------|
G|---12p10----10------------10----------10-|-----------------------------------|
D|--------h12----12-8h10/12-----10h12------|-8---------------------------------|
A|-----------------------------------------|-----------------------------------|
E|-----------------------------------------|-----------------------------------|

e|-----------------------------------------|---------------------|-------------------|
B|-----------------------------------------|---------------------|-------------------|
G|---12p10----10------------10----------10-|---------------------|-------------------|
D|--------h12----12-8h10/12-----10h12------|-8-------------------|--------10---------|
A|-----------------------------------------|---------------------|--8h10------10h8---|
E|-----------------------------------------|---------------------|-------------------|

e|--------------------------------------------|----13-(13)-(13)-(13)-(13)-15\10--10--|
B|-------------------------------------------8/11------------------------------------|
G|---12p10----10------------10----------10----|--------------------------------------|
D|--------h12----12-8h10/12-----10h12---------|--------------------------------------|
A|--------------------------------------------|--------------------------------------|
E|--------------------------------------------|--------------------------------------|

e|--------------------------------------------|---13-(13)-(13)-(13)-(13)-15\10--10---|
B|--------------------------------------------|--------------------------------------|
G|---12p10----10------------10----------10--12\--------------------------------------|
D|--------h12----12-8h10/12-----10h12---------|--------------------------------------|
A|--------------------------------------------|--------------------------------------|
E|--------------------------------------------|--------------------------------------|


 [Chorus]

    Gm    F  Bb    F   Eb                         Eb F    Gm     F   Bb    F   Eb
e|--3-----5--6-----8---6--10-13--10-13-----10-13--6--8--|-10-----8---6-----8---6-----|
B|--3-----5--6-----10--8----------------11--------8--10-|-11-----10--6-----10--8-----|
G|--3-----4--7-----10--8--------------------------8--10-|-12-----10--7-----10--8-----|
D|--5-----3--8-----10--8--------------------------8--10-|-12-----10--8-----10--8-----|
A|--5-----3--8-----8---6--------------------------6--8--|-10-----8---8-----8---6-----|
E|--3-----1--6-----8---6--------------------------6--8--|--------8---6-----8---6-----|

e|---------------------------------------|
B|-----------------------------------8---|
G|-7--10----7--10----7--10----7--10----7-|
D|--------8--------8--------8------------|
A|---------------------------------------|
E|---------------------------------------|


    Gm    F  Bb    F   Eb                           Eb F    Gm     F   Bb    F   Eb
e|--3-----5--6-----8---6----------------------------6--8--|-10-----8---6-----8---6-----|
B|--3-----5--6-----10--8----------------------------8--10-|-11-----10--6-----10--8-----|
G|--3-----4--7-----10--8--7--10----7--10----7--10---8--10-|-12-----10--7-----10--8-----|
D|--5-----3--8-----10--8---------8--------8---------8--10-|-12-----10--8-----10--8-----|
A|--5-----3--8-----8---6----------------------------6--8--|-10-----8---8-----8---6-----|
E|--3-----1--6-----8---6----------------------------6--8--|--------8---6-----8---6-----|

e|------------------------------------------|
B|------------------------------------------|
G|-7--10----7--10----7--10----7--10---12----|
D|--------8--------8--------8------------12-|
A|------------------------------------------|
E|------------------------------------------|

 [Outro]
e|-------------------------------------------|----13---------13---------13---------13-|
B|-13\---15--13\-----15--13\-----15--13\-----|15---------15---------15---------13-----|
G|-----------------15----------15----------15|---------15---------15---------15-------|
D|-------------------------------------------|----------------------------------------|
A|-------------------------------------------|----------------------------------------|
E|-------------------------------------------|----------------------------------------|

e|-----------------------------------------------------|
B|---15--13-----15--13-----15--13-----15--13-----------|
G|-15---------15---------15---------15---------15------|
D|-----------------------------------------------------|
A|-----------------------------------------------------|
E|-----------------------------------------------------|

e|-13---------13---------13---------13--|
B|--------15---------15---------15------|
G|------15---------15---------15--------|
D|--------------------------------------|
A|--------------------------------------|
E|--------------------------------------|

e|----------------------------------------------|----13---------13---------13---------13-|
B|---15--13\---15--13---------13---------13-----|----------------------------------------|
G|-15---------------------15---------15---------|15---------15---------15---------15-----|
D|----------------------15---------15---------15|---------15---------15---------15-------|
A|----------------------------------------------|----------------------------------------|
E|----------------------------------------------|----------------------------------------|

e|---------------------------------------------------|
B|---15--13-----15--13-----15--13-----15--13---------|
G|-15---------15---------15---------15---------15----|
D|---------------------------------------------------|
A|---------------------------------------------------|
E|---------------------------------------------------|

e|-13---------13---------13---------13---------13----------------------------|
B|--------15---------15---------13---------15--------------------------------|
G|------15---------15---------15---------15----------------------------------|
D|---------------------------------------------------------------------------|
A|---------------------------------------------------------------------------|
E|---------------------------------------------------------------------------|



************************************

| /   Slide up
| \   Slide down
| h   Hammer-on
| p   Pull-off
|( )  Ghost note

************************************

            
            
Suggest correction
Creating personal tab
Creating personal tab
You can edit any tab online and save it as your Personal.

You can edit, replace or remove any tab part or add personal notes – all changes will be seen only by you.

Personal tabs can be accessed anytime from any device, even offline.
Learn more »
Give kudos to tab author, rate the tab!
1 2 3 4 5
comments
print report bad tab
guest
You may want to rate the tab now too:
select rating
Wanna post a correction for this tab? Suggest correction