Oops, an error
Loading. Please wait.

In A Cave Bass Tab

5,879 views 9 this week
no commentswrite comment
1 2 3 4 5
x 6
add to favorites
launch autoscroll
font size
0
reset
guitar tuner
Autoscroll
slow
fast
+/-
esc
set tempo
stop
Help us to improve Ultimate-Guitar.com Take our survey!
×
Author
G|--------444-4444----------------|
D|--------------------------555---| 8X
A|-5-5-5-----------5-5-5-77-------|
E|--------------------------------|

G|----------------|
D|----------------|
A|--------3~------| 2X
E|--0~-3~---------|

G|----------------|
D|----------------|
A|--------3~-2222-|
E|--0~-3~---------|

-Rest-

G|--------444-4444----------------|
D|--------------------------555---|
A|-5-5-5-----------5-5-5-77-------| 3X
E|--------------------------------|

G|--------444-4444--|
D|------------------|
A|-5-5-5------------|
E|------------------|

G|----------------|
D|----------------|
A|--------3~------|  3X
E|--0~-3~---------|

-Rest-

G|----------------------------|
D|----------------------------|
A|--------------3-3-3-33-3-3--| 4X
E|-3-3-3-33-3-3---------------|

G|-----------------------------------|
D|-----------------------------------|
A|-/10-10-10-1010-10-10-3-3-3-33-3-3-|
E|-----------------------------------|

G|----------------------------|
D|----------------------------|
A|--------------3-3-3-33-3-3--| 6X
E|-3-3-3-33-3-3---------------|

------------
Please Rate!
Suggest correction
comments
print report bad tab
guest
You may want to rate the tab now too:
select rating
Wanna post a correction for this tab? Suggest correction