Oops, an error
Loading. Please wait.

My House Chords

373 views 36 this week
2 commentsread comments
1 2 3 4 5
2 more votes to show rating
add to favorites
launch autoscroll
font size
0
reset
transpose
0
reset
simplify chords
display chords
guitar tuner
Autoscroll
slow
fast
+/-
esc
set tempo
stop
Help us to improve Ultimate-Guitar.com Take our survey!
×
Author
Tuning
D A D G B E
About this tab version
This is the first version. Was this info helpful? Yes No
   D   A    Bm    G    D5   G5   A5   F#5  E5
e|-------------------------------------------|
B|--7----5----7----3-------------------------|
G|--7----6----7----4-------------------------|
D|--7----7----9----5----0----5----7----4----2|
A|--5----7----9----5----0----5----7----4----2|
D|----------------------0----5----7----4----2|

[FINGERPICKED VERSE 2 RIFF]
   D               A                  G
e|---------------------------------------------------------------------|
G|--7---------7-----5-----------5------3-----------3-----3----------3--|
B|-------7------7---------6-------6----------4-------4--------4-------4|
D|---------------------------------------------------------------------|
A|---------------------------------------------------------------------|
E|--0--0----0-------7--7-----7---------5--5-----5--------5--5----5-----|

[FINGERPICKED CHORUS RIFF}
   G               A                  D
e|---------------------------------------------------------------------|
G|--3---------3-----5-----------5------7-----------7-----7----------7--|
B|-------4------4---------6-------6----------7-------7--------7-------7|
D|---------------------------------------------------------------------|
A|---------------------------------------------------------------------|
E|--5--5----0-------7--7-----7---------0--0-----5--------0--0----0-----|


[VERSE 1]
D          A               Bm            G
Someone I know very, very, very well is spilling my secret
D       A             G
They're underneath my spell
D          A                 Bm             G
Someone I like, baby just a little bit is making me seasick
D     A                G
It's funny how you can tell

[BRIDGE]
D   A   Bm     G
Any old day now
D   A   Bm     G
Any old day now
D   A   Bm     G
Any old day now
D      A       Bm      G
The truth is gonna come out

[CHORUS]
G                   A    D5
I could see it from my house
G                   A    D5
I could see it from my house
G                        A     D5
You were screaming your heart out
G                        A
You were screaming your heart out

[VERSE 2]
D           A                         G 
Whatever you do, I guess it doesn't matter if no one else knows it
D   A               G
Did you even think twice?
D             A                       G
Whatever you want, just come out and say it and you can just have it
D  A               G
Do you really feel bad?

[BRIDGE]
D   A   Bm     G
Any old day now
D   A   Bm     G
Any old day now
D   A   Bm     G
Any old day now
D      A       Bm      G
The truth is gonna come out

[CHORUS]
G                   A    D5
I could see it from my house
G                   A    D5
I could see it from my house
G                        A     D5
You were screaming your heart out
G                        A
You were screaming your heart out

[BRIDGE]
G5    F#5    E5      D5
I just can't keep it down
G5     F#5     E5       D5
I just can't keep it down, down, down, down

[CHORUS]
G                   A    D5
I could see it from my house
G                   A    D5
I could see it from my house
G                        A     D5
You were screaming your heart out
G                        A
You were screaming your heart out
G                   A    D5
I could see it from my house
G                   A    D5
I could see it from my house
G                        A     D5
You were screaming your heart out
G                        A
You were screaming your heart out



Suggest correction
Give kudos to tab author, rate the tab!
1 2 3 4 5
comments
print report bad tab
2 comments total.
0 reply
philippatchin 10 Oct 09, 2016 07:42 PM

Good tab! not sure if its drop-d or standard...works either way. Digging these guys!

0 reply
Jgtres 21 Nov 20, 2016 11:52 PM

Tab is pretty accurate. Nice one!

guest
You may want to rate the tab now too:
select rating
Wanna post a correction for this tab? Suggest correction