Oops, an error
Loading. Please wait.

Nature Of The Experiment Bass Tab

version 1
version 1

Whole song

10,569 views 6 this week
no commentswrite comment
1 2 3 4 5
accurate
x 15
add to favorites
launch autoscroll
font size
0
reset
guitar tuner
Autoscroll
slow
fast
+/-
esc
set tempo
stop
Help us to improve Ultimate-Guitar.com Take our survey!
×
Author
Difficulty
novice
Album: A Lesson In Crime (EP)
Tabbed by: Tony D(Temp144)

Pretty good song. Damn good and underappreciated band from Canada 
making danceable indie which I like. The bass is simple, so I'm pretty 
sure everything's correct. Anyway, Try & Rate! Enjoy! Long Live Taborama!

Intro:5x
G----------------|
D----------------|
A-5-5555--9-9999-|
E----------------|

Verse:2x
G------------------------------------------------------------|
D------------------------------------------------------------|
A-5-5555--9-9999-5-5555--9-9999---------------2-2222-2-2222--|
E-------------------------------5555-4444-2222---------------|

Chorus:1x
G-----------------------------------------------------------|
D-----------------------------------------------------------|
A---------0(ring)--4(ring)---------0(ring)--4(ring)-0-------|
E--2(ring)-----------------2(ring)--------------------4-2-0-|

Pre-Chorus: Play Intro 4x
Verse:2x
Chorus:1x

Bridge:5x
G-----------------------------|
D-----------------------------|
A-5-5555-5-5555--------7-7777-|
E---------------5-5555--------|

Outro:1x
G---------------------------------------|
D---------------------------------------|
A-5-5555--5-5555----------------5(ring)-|
E----------------5-4-2-0-4-2-0----------|
Suggest correction
comments
print report bad tab
guest
You may want to rate the tab now too:
select rating
Wanna post a correction for this tab? Suggest correction