Oops, an error
Loading. Please wait.

New New Song Bass Tab

640 views 1 this week
no commentswrite comment
1 2 3 4 5
1 last vote to show rating
add to favorites
launch autoscroll
font size
0
reset
guitar tuner
×
Best way to learn
"New New Song"
Autoscroll
slow
fast
+/-
esc
set tempo
stop
Author
Tokyo Police Club
"New New Song"
Dunne ken what album
Standard tuning
Cool kids only

Intro:
G|--------------------------|
D|--------------------------|
A|--------------------------|
E|--15/----3~---------------|

Rest

00:14
G|--------------------------|--------------------------|
D|--------------------------|-10(x24)---9(x8)----------|
A|------------------10(x8)--|-------------------10(x8)-|
E|10(x8)---12(x8)-----------|--------------------------|

00:27
G|--------------------------|--------------------------|
D|--------------------------|/10(x24)---12(x8)---9(x8)-|
A|--------------------------|--------------------------|
E|8-8---8-8---8-8---10-10---|--------------------------|


00:41
G|--------------------------|
D|--------------------------|
A|--------2(x8)---3(x16)----|X2
E|3(x8)---------------------|

Rest

1:06
G|--------------------------|--------------------------|
D|--------------------------|-10(x24)---9(x8)----------|
A|------------------10(x8)--|-------------------10(x8)-|
E|10(x8)---12(x8)-----------|--------------------------|

1:19
G|--------------------------|--------------------------|
D|--------------------------|/10(x24)---12(x8)---9(x8)-|
A|--------------------------|--------------------------|
E|8-8---8-8---8-8---10-10---|--------------------------|
(Unsure if the first 8 is a quarter, or two eighths.Both sound good, though.)

1:33
G|--------------------------|
D|--------------------------|
A|--------2(x8)---3(x16)----|X2
E|3(x8)---------------------|
(usually 2nd repeat, I stay on E string for easier change to next. ie: 3->7->8)

1:46
G|--------------------------|
D|--------------------------|
A|10(x8)--------------------|X2
E|---------12(x8)---8(x16)--|
(last note in song, 8th fret, slide to open on E)


That is basically it.  Change the fingering to how you feel comfortable.  Lemmie know if 
are any errors, and I'll correct them!
Suggest correction
Give kudos to tab author, rate the tab!
1 2 3 4 5
comments
print report bad tab
guest
You may want to rate the tab now too:
select rating
Wanna post a correction for this tab? Suggest correction