Oops, an error
Loading. Please wait.

Not My Girl chords

1,768 views 6 this week
no commentswrite comment
1 2 3 4 5
x 4
add to favorites
×
Save as Personal and add changes to this tab that will be seen only by you. Learn more ›
×
You can save this tab as Personal to edit and correct it or add notes. All changes will be seen only by you. Learn more »
launch autoscroll
font size
0
reset
transpose
0
reset
display chords
guitar tuner
edit
Autoscroll
slow
fast
+/-
esc
set tempo
stop
Author
Strumming
There is no strumming pattern for this song yet. and get +5 IQ
   E    A     F#m   C#m  E   B
e--0----5-----2----4-----7----7
B--0----5-----2----5-----9----7
G--1----6-----2----6-----9----8
D--2----7-----4----6-----9----9
A--2----7-----4----4-----7----9
E--0----5-----2---------------7


INTRO RIFF
e|-------------------------------------------------0
B|-------------------------------------------------0
G|-------------------------------------------------1
D|-------------------------------------------------2
A|-------------------------------------------------2
E|--12-12-0-0-0-0-0-0-0-12-12-0-0-12-12-0-0-12-12--0



VERSE
E         A                    F#m
Truth or dare, it’s in the air
F#m             C#m            E
Ten feet under water playing millionaires
E            A                    F#m
A swimming pool and a cruel summer
                       C#m  E
This is how i met you

BRIDGE
E                              A       
Went to the city, in someone’s basement
F#m
We paid four-fifty whoa oh oh
e--------------------
B--------------------
G--9----11--13---16--
D--X----X---X----X---
A--7----9---11---14--
E--------------------
E                                 A    
Woke in the morning and you were different
             F#m   
It goes so quickly oh oh oh
e--------------------7--
B--------------------7--
G--9----11--13---16--8--
D--X----X---X----X---9--
A--7----9---11---14--9--
E--------------------7--

CHORUS
A                        
Time doesn’t mean much to me 
B
Doesn't mean much to me
E
if you're not my girl
A                        
Time doesn’t mean much to me 
B
Doesn't mean much to me
E
if you're not my girl
INTRO RIFF
You're not my girl

VERSE
E             A                F#m
Blown to bits, the greatest hits
F#m                C#m                    E       
Sing ‘em to your children, and their childrens’ kids
E           A                  F#m
A microphone and a cruel lover
F#m                    C#m   E
How can I forget you?
e--------------------
B--------------------
G--9----11--13---16--
D--X----X---X----X---
A--7----9---11---14--
E--------------------

BRIDGE
E                              A
Back in the city, I check the statements
              F#m       C#m  E
I pay nine-fifty
E                               A
Woke in the morning and I was different
             F#m      C#m    E    B
It goes so slowly oh oh oh oh oh oh
e--------------------7--
B--------------------7--
G--9----11--13---16--8--
D--X----X---X----X---9--
A--7----9---11---14--9--
E--------------------7--

CHORUS
A                            
Time doesn’t mean much to me 
B
Doesn't mean much to me 
E
If you're not my girl
A
Time doesn’t mean much to me 
B
Doesn't mean much to me 
E
If you're not my girl

INTRO RIFF
You're not my girl

SOLO

e--12------9------7-----::--2h0--2h0--4h0---2h0---4h0---2h0--5h0---4h0--2h0--4h0--2h0-
B------12-----9------7--::------------------------------------------------------------
G-----------------------::------------------------------------------------------------
D-----------------------::------------------------------------------------------------
A-----------------------::------------------------------------------------------------
E-----------------------::------------------------------------------------------------

e--12~---16--19--14--12~::--12--14b15~~
B-----------------------::-------------
G-----------------------::-------------
D-----------------------::-------------
A-----------------------::-------------
E-----------------------::-------------

CHORUS
A                            
Time doesn’t mean much to me 
B
Doesn't mean much to me 
E
If you're not my girl
A
Time doesn’t mean much to me 
B
Doesn't mean much to me 
E
If you're not my girl

            
            
Suggest correction
Creating personal tab
Creating personal tab
You can edit any tab online and save it as your Personal.

You can edit, replace or remove any tab part or add personal notes – all changes will be seen only by you.

Personal tabs can be accessed anytime from any device, even offline.
Learn more »
comments
print report bad tab
guest
You may want to rate the tab now too:
select rating
Wanna post a correction for this tab? Suggest correction