Oops, an error
Loading. Please wait.

Nursery Academy Bass Tab

371 views 1 this week
1 commentread comment
1 2 3 4 5
please rate
add to favorites
launch autoscroll
font size
0
reset
guitar tuner
Autoscroll
slow
fast
+/-
esc
set tempo
stop
Help us to improve Ultimate-Guitar.com Take our survey!
×
Difficulty
novice
Album: Elephant Shell
Tabbed by: Justin B
Intro:

Come in at 0:14
G---------------------|
D--5~----2~-----------|  x2
A-------------5~------|
E---------------------|


Main Riff:

Start at 0:26
G---------------------------|
D-------------222-----------|x8 
A---3-3--2-2------55-2-33---|
E---------------------------|

Start at 0:50
G------------------------------------------------------------|
D----55555555-22222222---------------------------------------| x2
A----------------------5555555555555555----------------------|
E------------------------------------------------------------|

G------------------------------------------------------------|
D----55555555-22222222---------------------------------------| 
A----------------------55555555-222-223----------------------|
E------------------------------------------------------------|


Start at 1:29

G----------------------------|
D-5~--2~---------------------|
A---------5~----5-5-222------|
E----------------------------|

G----------7~----------------|
D-5~--9~---------------------|
A----------------------------|
E----------------------------|

Repeat main riff...
G---------------------------|
D-------------222-----------|x4
A---3-3--2-2------55-2-33---|
E---------------------------|

G---------------------------|
D---------------------------|x4
A--777-7777---555-5555------|
E---------------------------|

G-----------------------------------|
D-----------------------------------|x2  (Tenth fret not 1,0,1...)
A--777-7777---101010-10101010-------|
E-----------------------------------|

G---------------------------|
D---------------------------|x2
A--777-7777---555-5555------|
E---------------------------|


My first tab so if you have questions shoot me an email!
justlouizct@gmail.com
Suggest correction
What's this?
You can suggest a correction to this tab. Community and Mods will review your correction and vote to approve or reject it.
comments
We did not receive enough feedback on this tab! Please rate:
print report bad tab
1 2 3 4 5
1 comment total.
0 reply
keephardcore 12 wrote on April 8 2016, 06:56 am

I think at the main riff you should play:

G---------------------------|
D-------------222-00--------|
A---3-3--2-2-------00-222---|
E---------------------------|

Instead of
G---------------------------|
D-------------222-----------|
A---3-3--2-2------55-2-33---|
E---------------------------|

guest
You may want to rate the tab now too:
select rating
Please do not post tabs as comments. Select "correction" instead!