Oops, an error
Loading. Please wait.

Sixties Remake Bass Tab

1,956 views 3 this week
no commentswrite comment
1 2 3 4 5
3 more votes to show rating
add to favorites
launch autoscroll
font size
0
reset
guitar tuner
Autoscroll
slow
fast
+/-
esc
set tempo
stop
Help us to improve Ultimate-Guitar.com Take our survey!
×
Author
G|-----------------------------------------------------|
D|-------------------------55--77----------------------|
A|-3-33-33-33-33-33-33-33----------55-55-55-55-55-33~--|
E|-----------------------------------------------------|


G|----------------------------------------|
D|----------------------------------------|
A|--555555--777777--101010101010--555555--|
E|----------------------------------------|

G|--------------------------------|
D|--------------------------------|
A|--555555--777777--101010101010--|
E|--------------------------------|


G|------------------------------------------------------------------------|
D|--------------------------55---77-----------------7777-5555-------------|
A|-33-33-33-33-33-33-33-33-----5----55-55-55-55-55------------7777--5555--|
E|------------------------------------------------------------------------|


G|----------------------------------------|
D|----------------------------------------|
A|--555555--777777--101010101010--555555--|
E|----------------------------------------|

G|--------------------------------|
D|--555555--777777--101010101010--|
A|--------------------------------|
E|--------------------------------|


G|-----------------------------------------------------------------------|
D|---------------------------55---77---------------------5555-7777-9999--|
A|--33-33-33-33-33-33-33-33-----5----55-55-55-55-55-7777-----------------|
E|-----------------------------------------------------------------------|

G|--------------------------------------|
D|--10(32X)--9(16X)---------------------|
A|------------------77777777--55555555--|
E|--------------------------------------|
Suggest correction
Give kudos to tab author, rate the tab!
1 2 3 4 5
comments
print report bad tab
guest
You may want to rate the tab now too:
select rating
Wanna post a correction for this tab? Suggest correction