Oops, an error
Loading. Please wait.

Tesselate Bass Tab

6,842 views 1 this week
no commentswrite comment
1 2 3 4 5
x 4
add to favorites
launch autoscroll
font size
0
reset
guitar tuner
Autoscroll
slow
fast
+/-
esc
set tempo
stop
Help us to improve Ultimate-Guitar.com Take our survey!
×
Author
Difficulty
novice
Tesselate - Tokyo Police Club

Tabbed By : Nate
e-mail:

Tuning:Standard

Intro/verse
G|--------------------------------------------------------------------------|
D|--------------------------------------------------------------------------|
A|---7----------------------------------------7-----------------------------|
E|---------9---------5555555544444444----------------9-----5555555544444444-|

Pre Chorus
G|---------------------------------------------------------------------------|
D|---------------------------------------------------------------------------|
A|---------------------------------------------------------------------------|
E|-5h77-7777-77-55-5555-55h77-7777-77-55-5555-55h77-7777-77h99-99-9/12-12----|

G|--------------------------------------------------------------------------|
D|--------------------------------------------------------------------------|
A|------121212-12-121212-1212-1111-1111-1111-11/1---------------------------|
E|-12-12--------------------------------------------------------------------|

Lead into Chorus                          Chorus
G|-13-13-11-11--------------------------------------------------------------|
D|-------------14-14--11-11-------------------------------------------------|
A|--------------------------11x8-12x8-9x8-----------------------------------|
E|----------------------------------------0-000-/5-55-2-22-/5-55-5-55-/7-77-|
                               Verse variation (strum chord)
G|--------------------------------------------------------------------------|
D|--------------------------------------------------------------------------|
A|-----------------999-7-------7x8------------------------------------------|
E|-7/9-99-/12-1212------------------9x8-----5x8--4x8------------------------|
Suggest correction
comments
print report bad tab
guest
You may want to rate the tab now too:
select rating
Wanna post a correction for this tab? Suggest correction