Oops, an error
Loading. Please wait.

Tessellate Tab

version 2
version 2

Whole song

2,824 views 1 this week
no commentswrite comment
1 2 3 4 5
1 last vote to show rating
add to favorites
launch autoscroll
font size
0
reset
how to read this tab
guitar tuner
Autoscroll
slow
fast
+/-
esc
set tempo
stop
Help us to improve Ultimate-Guitar.com Take our survey!
×
Difficulty
intermediate
heyy hope you like this tab - please rate thx
This is the acoustic version he plays

TUNING STANDARD

INTRO/VERSE FILL
 |----------------------------------------------------------|
 |----------------------------------------------------------|
 |---9-9-----9-9---9-9---9-9----9-9-9-9-9-9---9-9-9-9-9-9---| REPEAT
 |---9-9-----9-9---9-9---9-9----9-9-9-9-9-9---9-9-9-9-9-9---| 4 TIMES
 |-7-----7h9-----7------------------------------------------|
 |---------------------9-----7h9------------7---------------|

FOR THE BEGINNING OF THE VERSE YOU CAN CONTINUE TO PLAY AS ABOVE OR
USE THE CHORD A AS SHOWN BELOW FOR THE SINGING PARTS BUT THE FILL BETWEEN
THEM IS THE SAME AS ABOVE

VERSE
|-0-
|-2-
|-2-
|-2-
|-0-
|-X-

THEN

PRE CHORUS
|--------------------------------------------------|
|--------------------------------------------------|
|-8--8--8--8--8--8--8--8---6--6--6--6--6--6--6--6--|REPEAT
|-9--9--9--9--9--9--9--9---7--7--7--7--7--7--7--7--|2 TIMES
|-9--9--9--9--9--9--9--9---7--7--7--7--7--7--7--7--|
|-7--7--7--7--7--7--7--7---5--5--5--5--5--5--5--5--|
(    all     your      secrets      where    drowned
    with  the  pioneers  who  where  flooded   from   this   town)

|----------------------------------------------------------------|
|----------------------------------------------------------------|
|-8------8------8-------8------------6------6------6------6------|REPEAT
|-9-9-9--9-9-9--9-9-9---9-9-9--------7-7-7--7-7-7--7-7-7--7-7-7--|2 TIMES
|-9-9-9--9-9-9--9-9-9---9-9-9--------7-7-7--7-7-7--7-7-7--7-7-7--|
|-7------7------7-------7------------5------5------5------5------|
(   they     packed     there        bags                      only    moments    to     late
with the pounding waves crashing up against   the weakened water gate

CHORUS

FOR THE CHORUS ITS JUST THREE CHORDS


|-0-0-0-0-0-0-0-0...0-0-0-0--0-0-0-0--0-0-0-0-0-0-0-0-|
|-0-0-0-0-0-0-0-0...2-2-2-2--2-2-2-2--0-0-0-0-0-0-0-0-|
|-1-1-1-1-1-1-1-1...2-2-2-2--2-2-2-2--1-1-1-1-1-1-1-1-|
|-2-2-2-2-2-2-2-2...2-2-2-2--4-4-4-4--2-2-2-2-2-2-2-2-|
|-2-2-2-2-2-2-2-2...0-0-0-0--4-4-4-4--2-2-2-2-2-2-2-2-|
|-X-X-X-X-X-X-X-X...X-X-X-X--X-X-X-X--X-X-X-X-X-X-X-X-|
                                         coz dire times etc...

THEN REPEAT THESE THREE DIFFRENT CHORDS BUT AFTER (BARE FOOT YOU AND I ) IT SHOULD BE AN 
CHORD BUT GO TO A CHORD INSTEAD

SO ITS PRETTY MUCH ALL THE SAME

order:
INTRO
VERSE+FILL
PRE CHORUS
CHORUS
VERSE+FILL
PRE CHORUS
CHORUS

BUT TO FINISH THE SONG WHEN IT GOES DEAD LOVERS SALIVATE PLAY A CHORD ONCE AND LET RING
THEN ON BROKEN HEARTS TESSALATE PLAY A CHORD BUT MUCK ABOUT WITH IT AND FINISH ON E CHORD
Suggest correction
Give kudos to tab author, rate the tab!
1 2 3 4 5
comments
print report bad tab
guest
You may want to rate the tab now too:
select rating
Wanna post a correction for this tab? Suggest correction