Oops, an error
Loading. Please wait.

Top Five Bass Tab

85 views 3 this week
no commentswrite comment
1 2 3 4 5
please rate
add to favorites
launch autoscroll
font size
0
reset
guitar tuner
Autoscroll
slow
fast
+/-
esc
set tempo
stop
Help us to improve Ultimate-Guitar.com Take our survey!
×
Difficulty
novice
Artist: Tokyo Police Club
Song: Top 5!

Start at 0:20
G|----------------------------------------------------------------------|
D|---7~-----------9~-9-11-7~--------------------------------------------|
A|----------7~------------------7/14------------------------------------|
E|----------------------------------------------------------------------|

G|----------------------------------------------------------------------|
D|----------------------------------------------------------------------|
A|------------------------------------------99--------------------------|
E|---5-55-5-5---5-55-5-5---9-99-9-9---7-77------------------------------|


G|----------------------------------------------------------------------|
D|---------------7--6--4-------6--4-------------------------------------|
A|-------------------------4---------7---------99-----------------------|
E|---5-55-5-5----------------------------7-77---------------------------|


G|--------------------9~------------------------------------------------|
D|---7~-------9~--------------11~------6~-------------------------------|
A|---------------------------------------------9~-----------------------|
E|----------------------------------------------------------------------|


G|--------------------9~------------------------------------------------|
D|---7~-------9~--------------11~------6~-------------------------------|
A|---------------------------------------------9~-----------------------|
E|----------------------------------------------------------------------|

G|----------------------------------------------------------------------|
D|----------------------------------------------------------------------|
A|----------------------------7-77--------------------------------------|
E|--5-55----9-99-----5-55-----------------------------------------------|

G|----------------------------------------------------------------------|
D|------------------------------------------99--------------------------|
A|----------------------------------------------------------------------|
E|---5-55-5-5---5-55-5-5---9-99-9-9---7-77------------------------------|

G|----------------------------------------------------------------------|
D|--------------7---6---4--------------------99-------------------------|
A|--------------------------7-77-7-7------------------------------------|
E|---5-55-5-5--------------------------7-77-----------------------------|

Pause....Start back at 2:16

G|-------------------------------------------------------------------|
D|-------------------------------------------------------------------| (x2)
A|---12--11--9--11----12--11--9--11----7--4----4---7--4----4---------|
E|-------------------------------------------7-----------7-----------|

G|----------------------------------------------------------------------|
D|-------------------11--9--7-------------------------------------------|
A|---12--11--9--11-------------11----7--4----4----7--4----4-------------|
E|-----------------------------------------7------------7-----555-------|

Awesome song email me with questions! justlouizclt@gmail.com

Suggest correction
Give kudos to tab author, rate the tab!
1 2 3 4 5
comments
print report bad tab
guest
You may want to rate the tab now too:
select rating
Please do not post tabs as comments. Select "correction" instead!