Oops, an error
Loading. Please wait.

Your English Is Good Bass

version 1
version 1

Whole song

Interactive

9,862 views 12 this week
4 commentsread comments
1 2 3 4 5
x 10
add to favorites
launch autoscroll
font size
0
reset
guitar tuner
×
Best way to learn
"Your English Is Good"
Autoscroll
slow
fast
+/-
esc
set tempo
stop
Author
Start @ 0:16
G|--------------|
D|--12~---------|
A|-----12~------|
E|--------------|

G|-------------------------------------------|
D|-------------------------------------------|
A|-10(16X)-9-9-9----------------12(8X)-------| 5X
E|---------------12-10-10-10-10--------------|

G|-------------------------------------------|
D|-------------------------------------------|
A|-10(16X)-9-9-9----------------0(8X)--------|
E|---------------12-10-10-10-10--------------|

G|-------------------------------------------|
D|-------------------------------------------|
A|-----------12~-9~-10~----12~-12-12-12-12---|
E|--2~-3~/10~-----------10~------------------|

G|-------------------------------------------|
D|-------------------------------------------|
A|-10(16X)-9-9-9----------------12(8X)-------|
E|---------------12-10-10-10-10--------------|

G|-------------------------------------------|
D|-------------------------------------------| 3X
A|-10(16X)-9-9-9----------------12(8X)-------|
E|---------------12-10-10-10-10--------------|

G|-------------------------------------------|
D|-------------------------------------------|
A|-10(16X)-9-9-9----------------0(8X)--------|
E|---------------12-10-10-10-10--------------|

G|-------------------------------------------|
D|-------------------------------------------|
A|-10(16X)-9-9-9----------------12(8X)-------|
E|---------------12-10-10-10-10--------------|

G|-------------------------------------------|
D|-------------------------------------------|
A|-10(16X)-9-9-9----------------0(8X)--------|
E|---------------12-10-10-10-10--------------|


G|-------------------------------------------|
D|-----------7~------------------------------|
A|--------5~-----9~-10~----12~-12-12-12-12---|
E|--2~-3~--------------10~-------------------|

G|-------------------------------------------|
D|-------------------------------------------|
A|-10(16X)-9-9-9----------------12(8X)-------| 4X
E|---------------12-10-10-10-10--------------|

------------
Please Rate!
Suggest correction
comments
print report bad tab
4 comments total. Showing first comments.
0 reply
ramrodTM 129 Sep 01, 2008 10:49 PM

great tab! *****

0 reply
Buffilax 10 Apr 24, 2009 06:06 AM

Splendid work!

0 reply
erob5206 150 Aug 06, 2010 03:28 PM

Right in between that first part (at :16) and the part below it, there should be a few 12's (at around :23)

G|----------------------|
D|--12~-----------------|
A|-----12~--12-12-12-12-|
E|----------------------|

guest
You may want to rate the tab now too:
select rating
Wanna post a correction for this tab? Suggest correction