Oops, an error
Loading. Please wait.

Your English Is Good Bass Tab

version 2
version 2

Whole song

Interactive

905 views 6 this week
no commentswrite comment
1 2 3 4 5
3 more votes to show rating
add to favorites
launch autoscroll
font size
0
reset
guitar tuner
Autoscroll
slow
fast
+/-
esc
set tempo
stop
Help us to improve Ultimate-Guitar.com Take our survey!
×
-------------------------------------------------------------------------------
			     Your English Is Good - Tokyo Police Club
-------------------------------------------------------------------------------

Tabbed By : Transmission24
rimpkin@yahoo.com

Tuning: EADG

Intro (:16)
G|---------------------------------------------------------------------------|
D|-------7-7777--------------------------------------------------------------|
A|---5-----------------------------------------------------------------------|
E|---------------------------------------------------------------------------|

Verse x5 (:25)
G|---------------------------------------------------------------------------|
D|---55555555-55555555-4442-0000-77777777------------------------------------|
A|---------------------------------------------------------------------------|
E|---------------------------------------------------------------------------|

(1:04)
G|---------------------------------------------------------------------------|
D|---55555555-55555555-4442-0000---------------------------------------------|
A|-------------------------------00000000------------------------------------|
E|---------------------------------------------------------------------------|

Chorus (1:11)
G|---------------------------------------------------------------------------|
D|---------------7---4---5-------7-7777--------------------------------------|
A|-----------5---------------5-----------------------------------------------|
E|---2---3-------------------------------------------------------------------|

Verse x2 (1:27)
G|---------------------------------------------------------------------------|
D|---55555555-55555555-4442-0000-77777777------------------------------------|
A|---------------------------------------------------------------------------|
E|---------------------------------------------------------------------------|

(1:51)
G|---------------------------------------------------------------------------|
D|---55555555-55555555-4442-0000---------------------------------------------|
A|-------------------------------00000000------------------------------------|
E|---------------------------------------------------------------------------|

Verse x2 (1:59)
G|---------------------------------------------------------------------------|
D|---55555555-55555555-4442-0000-77777777------------------------------------|
A|---------------------------------------------------------------------------|
E|---------------------------------------------------------------------------|

Chorus (2:14)
G|---------------------------------------------------------------------------|
D|---------------7---4---5-------7-7777--------------------------------------|
A|-----------5---------------5-----------------------------------------------|
E|---2---3-------------------------------------------------------------------|

Verse x3 (2:30)
G|---------------------------------------------------------------------------|
D|---55555555-55555555-4442-0000---------------------------------------------|
A|-------------------------------77777777------------------------------------|
E|---------------------------------------------------------------------------|

(2:54)
G|------------------------------------------------------------------------------|
D|---55555555-55555555-4442-0000------------------------------------------------|
A|-------------------------------00000000-5-------------------------------------|
E|------------------------------------------------------------------------------|

| /  slide up
| \  slide down
| h  hammer-on
| p  pull-off
| ~  vibrato
| +  harmonic
| x  Mute note
===============================================================================
Suggest correction
Give kudos to tab author, rate the tab!
1 2 3 4 5
comments
print report bad tab
guest
You may want to rate the tab now too:
select rating
Wanna post a correction for this tab? Suggest correction