Oops, an error
Loading. Please wait.

Green Nail Polish tab

256 views 12 this week
no commentswrite comment
1 2 3 4 5
1 last vote to show rating
add to favorites
×
Save as Personal and add changes to this tab that will be seen only by you. Learn more ›
×
You can save this tab as Personal to edit and correct it or add notes. All changes will be seen only by you. Learn more »
launch autoscroll
font size
0
reset
how to read this tab
guitar tuner
edit
Autoscroll
slow
fast
+/-
esc
set tempo
stop
[Intro]
e|-------2--3--------------------------------|
B|---0---------0------0------3------0--------|
G|-----0----------0------0------0------0-----|
D|-------------------------------------------|
A|-------------------------------------------|
E|-------------------------------------------| (2x)


[Verse]
e|-------2--3--------------------------------|
B|---0---------0------0------3------0--------|
G|-----0----------0------0------0------0-----|
D|-------------------------------------------|
A|-------------------------------------------|
E|-------------------------------------------| (3x)

I woke up and I smelled like you
You woke up and I could tell that you weren't happy
So I walked to the deli

e|-----------------------------------------------------|
B|--0-----3-----0-----3-----0-----3------0-----3-------|
G|-----0----0------0-----0-----0------0-----0-----0----|
D|-----------------------------------------------------|
A|-----------------------------------------------------|
E|-----------------------------------------------------| (4x)

I don't wanna make my bed for anyone
I don't wanna spread my legs for anyone
I like to make my breakfast alone
Walk myself to the store, and then back to the porch

[Chorus]
e|----0-----3-----0-----0-------------------------------|
B|----0-----0-----0-----0-------------------------------|
G|----0-----0-----0-----0-------------------------------|
D|----2-----0-----2-----0-------------------------------|
A|----3-----2-----3-----2-------------------------------|
E|----0-----3-----0-----3-------------------------------|

But you liked my green nail polish
And I liked your sharp black mullet
It wasn't love, but I don't know what to call it

[Verse]
e|-----------------------------------------------------|
B|--0-----3-----0-----3-----0-----3------0-----3-------|
G|-----0----0------0-----0-----0------0-----0-----0----|
D|-----------------------------------------------------|
A|-----------------------------------------------------|
E|-----------------------------------------------------| (4x)

e|----0-----3-----0-----0-------------------------------|
B|----0-----0-----0-----0-------------------------------|
G|----0-----0-----0-----0-------------------------------|
D|----2-----0-----2-----0-------------------------------|
A|----3-----2-----3-----2-------------------------------|
E|----0-----3-----0-----3-------------------------------| 
 
Oh oh oh ohhh oh oh ohhh oh oh ohhh oh ohh oh
Oh oh oh ohhh oh oh ohhh oh oh ohhh oh ohh oh

[Outro]
e|-----------------------------------------------------|
B|--0-----3-----0-----3-----0-----3------0-----3-------|
G|-----0----0------0-----0-----0------0-----0-----0----|
D|-----------------------------------------------------|
A|-----------------------------------------------------|
E|-----------------------------------------------------| (4x)

You can kiss me just so you can read my texts every five minutes
And reread all the ones you sent to make sure that you meant them
You can kiss me just to miss me later
You can kiss me just so you feel better

            
            
Suggest correction
Creating personal tab
Creating personal tab
You can edit any tab online and save it as your Personal.

You can edit, replace or remove any tab part or add personal notes – all changes will be seen only by you.

Personal tabs can be accessed anytime from any device, even offline.
Learn more »
Give kudos to tab author, rate the tab!
1 2 3 4 5
comments
print report bad tab
guest
You may want to rate the tab now too:
select rating
Wanna post a correction for this tab? Suggest correction