Oops, an error
Loading. Please wait.

Tsunami chords

1,768 views 21 this week
no commentswrite comment
1 2 3 4 5
x 4
add to favorites
×
Save as Personal and add changes to this tab that will be seen only by you. Learn more ›
×
You can save this tab as Personal to edit and correct it or add notes. All changes will be seen only by you. Learn more »
launch autoscroll
font size
0
reset
transpose
0
reset
display chords
guitar tuner
edit
Autoscroll
slow
fast
+/-
esc
set tempo
stop
Strumming
There is no strumming pattern for this song yet. and get +5 IQ
finger pick this for intro/verse:


[Verse]

i am not a tsunami

so don't look at me that way

i want to be a good sky 

on a bad day

e|---------------------------------------------------------------------------|
B|---------------------------------------------------------------------------|
G|--0--2--4------------------------------------------------------------------|
D|---------------------------------------------------------------------------|
A|---------------------------------------------------------------------------|
E|--3--3--3------------------------------------------------------------------|
       
                C
and today was a bad day
                          G
I want someone to grab my face
         C                        G
tuck my hair behind my ears and say


[Chorus]

C
Isn't this silly and aren't you beautiful
G
Isn't this silly and aren't you beautiful
C 
isn't this silly and aren't you beautiful
G
Isn't this silly and aren't you beautiful

e|---------------------------------------------------------------------------|
B|----3----3-----------------------------------------------------------------|
G|------------4--2--0--------------------------------------------------------|
D|---------------------------------------------------------------------------| x2
A|---------------------------------------------------------------------------|
E|--3----3-------------------------------------------------------------------|

e|---------------------------------------------------------------------------|
B|---------------------------------------------------------------------------|
G|---------------------------------------------------------------------------|
D|---3-3--5-5----------------------------------------------------------------|
A|--2-2--4-4---2-------------------------------------------------------------|
E|-------------3-------------------------------------------------------------|


and i don't know how to talk to you

without a can in my hand


[Bridge]

C
oh oh oh oh without a can in your hand
G
oh oh oh oh and with all these people around
C 
oh oh oh oh and when we're by ourselves
G
oh oh oh oh oh 
C
oh oh oh oh oh
G
oh oh oh oh oh


[Chorus]

C
Isn't this silly and aren't you beautiful
G
Isn't this silly and aren't you beautiful




            
            
Suggest correction
Creating personal tab
Creating personal tab
You can edit any tab online and save it as your Personal.

You can edit, replace or remove any tab part or add personal notes – all changes will be seen only by you.

Personal tabs can be accessed anytime from any device, even offline.
Learn more »
comments
print report bad tab
guest
Wanna post a correction for this tab? Suggest correction