Oops, an error
Loading. Please wait.

Huellas Por Rastrear Tab

74 views 1 this week
no commentswrite comment
1 2 3 4 5
3 more votes to show rating
add to favorites
launch autoscroll
font size
0
reset
how to read this tab
guitar tuner
×
Best way to learn
"Huellas Por Rastrear"
Autoscroll
slow
fast
+/-
esc
set tempo
stop
Bueno me di a la tarea de hacer otra ves la tablatura
y acordes de esta rola ya que uno de los que subió los acordes
me la remplazo y lo malo es que la remplazaron con letra errónea
y los acordes bastante mal?
ya que mucha gente se quejo pz aki van los acordes
que tenia pero un poco modificados que hace 4 o 5 años
ps espero su respuesta cualquier cosa agréguenme
rudyzzim_zoe@
Sugerencias, comentarios rayadas de ma,,, etc hahhaa o
búsquenme con este mismo mail en Facebook..


Versión 1:14 es la versión corta ya que no tiene
el solo del piano y cambia el orden de las estrofas
y es la que viene en el disco D para drama
y no la de viejos amigos asi ke la letra kambia un poco
si quieren oír esta versión agregarme y con gusto se
las paso


Intro no. 1: es el intro con guitarra arpegiado

   G                   A7
1/---------------------------------------------/
2/-------3---------3---2---2---------2-2-------/
3/-----0---0-----0---0---0---0-----0-----0-----/
4/---0---------0-----------------2-------------/
5/---------------------0-------0---------------/
6/-3---------3---------------------------------/

   D
1/-------2-2----/
2/-----3----3---/
3/---2----------/ X4
4/-0------------/
5/--------------/
6/--------------/

   D
1/-2----/
2/-3----/
3/-2----/
4/-0----/
5/-0----/
6/-0----/

Intro no. 2 es el segundo cuando entran las guitarras
con acordes, 6tas, 3eras.

  G5 G3  G G5 G3  G  D        D3   G C# D
1/---3-3-3----3-3-3--2-2-2-0----------------/
2/---3-3-3----3-3-3--3-------3-3s5-3--2-3---/
3/---0---0----0---0--2----------------------/  x2
4/-0-----0--0-----0----0----------------0---/
5/-2-----2--2-----2------------0---2--4-----/
6/-3-----3--3-----3-------------------------/


1era estrofa

Camine por mucho tiempo para encontrar y fallar
                           (G2)        (C#)
   G        G        D   D#7M9-/C   C#mad9-/5-  G
1/---3-3-3----3-3-3--2-2-----0----------0-------3--/
2/---3-3-3----3-3-3--3-3-----3----------2-------3--/
3/---0-0-0----0-0-0--2-2---0-0--------0-0-------0--/
4/-0-0-0-0--0-0-0-0--0-----0-0--------0-0-------0--/
5/-2-2---2--2-2---2--------2-2--------4-4-------2--/
6/-3-3------3-3------------0----------0---------3--/

Aquí es como se toca con acordes esta parte de abajo hay
Dos acordes raros esos se tocan poniendo en los trastes
Que se indica y lo demás con las cuerdas sueltas y no puse
El de abajo con el nombre completo ya que ocupan mucho espacio
Pero ya saben que el G2 es D#7M9-/C, y C# que es C#mad9-/5-
estos acordes los saque del La lista de acordes del guitarpro
asi que no tienen nada que Ver con el glosario de acordes de la cuerda
asi que no creo que Los reconosca o les ponga otro modo de ese
acorde por eso lo Escribi en la 1era estrofa aquí arriba.
Como quiera ya saben que todo C# que encuentren
no es C# sino que es C#mad9-/5- para todos acordes véase al final.

G                   D
Camine por mucho tiempo
         G2    C#     G
para encontrar y fallar
     G            D          G2   C# G
me jure por el momento, para no perderme
        G
es la ultima vez, que tratas
      D                              G
la ultima vez, no me recuerdes, ya sabes
              A
duelo mucho mejor, si no estoooooooooooooy!!


Coro[1]

D                       G            A
esta vez dices con tus pasos que no estas
       D                  G           A
Y al caer dejas tantas huellas por rastrear
        F#m                 G
y al contrario aunque lo hiciste
     F#m                 G
al fingir que no estas triste
      F#m              G      A    DD
esta vez es obvio y cuentas algo mas.


  G5 G3  G G5 G3  G  D        D3   G C# D
1/---3-3-3----3-3-3--2-2-2-0----------------/
2/---3-3-3----3-3-3--3-------3-3s5-3--2-3---/
3/---0---0----0---0--2----------------------/
4/-0-----0--0-----0----0----------------0---/
5/-2-----2--2-----2------------0---2--4-----/
6/-3-----3--3-----3-------------------------/

  G5 G3  G G5 G3  G  D        D3   G C# D
1/---3-3-3----3-3-3--2-2-2-0----------------/
2/---3-3-3----3-3-3--3-------3-3s5-7-8-7----/
3/---0---0----0---0--2---------------0-------/
4/-0-----0--0-----0----0-----------0--------/
5/-2-----2--2-----2------------0-0-----0----/
6/-3-----3--3-----3-------------------------/


 G
Amanecer a nueva luz
       D             G2        C#
O intentar de nuevo todo tu secuestro
  G
Y aunque empezaba a dudar
        D                G2   C#       G
Ya no había tiempo de cuestionarme más

       G
Esta es la ultima vez, que tratas
      D            G2    C#       G
la ultima vez, no me recuerdes, ya sabes
              A
duelo mucho mejor, si no estoooooooooooooy!!

       D                  G            A
esta vez dices cuantos pasos que no estas
       D               G             A
y al caer dejas tres huellas por rastrear
        F#m                 G
y al contrario aunque lo hiciste
    F#m                   G
al fingir que no estas triste
     F#m               G      A   D D
esta vez es obvio y cuentas algo mas.

  G5 G3  G G5 G3  G  D        D3   G C# D
1/---3-3-3----3-3-3--2-2-2-0----------------/
2/---3-3-3----3-3-3--3-------3-3s5-3--2-3---/
3/---0---0----0---0--2----------------------/
4/-0-----0--0-----0----0----------------0---/
5/-2-----2--2-----2------------0---2--4-----/
6/-3-----3--3-----3-------------------------/

  G5 G3  G G5 G3  G  D        D3   G C# D
1/---3-3-3----3-3-3--2-2-2-0----------------/
2/---3-3-3----3-3-3--3-------3-3s5-7-8-7----/
3/---0---0----0---0--2---------------0-------/
4/-0-----0--0-----0----0-----------0--------/
5/-2-----2--2-----2------------0-0-----0----/
6/-3-----3--3-----3-------------------------/


A                Bm   G
si te hiciste mi noche,
A           Bm          G     A
porque di cuenta y no habría tal
               Bm    G     A
porque pasara esto (tu y yo)
                Bm            G
tan esperado incendio en la ciudad.


A               Bm            G
Esta vez fuiste tu mas de lo que esperaba
A             Bm            G
y tal vez era yo el que tu mas buscabas
A                Bm       G
si alguien queda esperándote
    A
ya no te presentas te perdiste de mi alcancé

      D                  G            A
esta vez dices cuantos pasos que no estas
       D               G             A
y al caer dejas tres huellas por rastrear
         F#m           G             F#m         G
Pero el daño que tu hiciste ya no es reparable heriste
      F#m            G         A     DD
mucho mas de lo que yo pude alcanzar.


Aimee mtz fabela thu me hiciste adicto a esta rola y a zoee;D thankz
Y el destino nos junto y nos separo y ahora estoy tratrando
de seguir thus huellas Y ahora intentar de nuevo todo thu secuestro
y arriesgarlo todo te kiero un chingo y juro que no parare
hasta volverte a ver de nuevo eso es lo ke kiero,
espero y deseo con cada latido TM AMFZ

Intenten también Austin tv: aimee observo el cielo
buenísima rola y la mayoría de esta banda
                (G2)       (C#)
   D      G   D#7M9-/C  C#mad9-/5-   A     Bm
1/-2-/  /-3-/   /-0-/     /-0-/    /-0-/  /-2-/
2/-3-/  /-3-/   /-3-/     /-2-/    /-2-/  /-3-/
3/-2-/  /-0-/   /-0-/     /-0-/    /-2-/  /-4-/
4/-0-/  /-0-/   /-0-/     /-0-/    /-2-/  /-4-/
5/-0-/  /-2-/   /-2-/     /-4-/    /-0-/  /-2-/
6/-0-/  /-3-/   /-0-/     /-0-/    /-0-/  /-2-/
Suggest correction
Give kudos to tab author, rate the tab!
1 2 3 4 5
comments
print report bad tab
guest
You may want to rate the tab now too:
select rating
Wanna post a correction for this tab? Suggest correction