Oops, an error
Loading. Please wait.

Trouble bass

124 views 1 this week
no commentswrite comment
1 2 3 4 5
2 more votes to show rating
add to favorites
×
Save as Personal and add changes to this tab that will be seen only by you. Learn more ›
×
You can save this tab as Personal to edit and correct it or add notes. All changes will be seen only by you. Learn more »
launch autoscroll
font size
0
reset
guitar tuner
edit
Autoscroll
slow
fast
+/-
esc
set tempo
stop
Difficulty
-------------------------------------------------------------------------------
			     TROUBLE - Tom and Olly
-------------------------------------------------------------------------------

Tom and Olly and a really good band but they are quite small... so not many people tab 
so im gonna have a go at a few of their songs!!

Tabbed By : MIC_CHECK_123
e-mail:
Tom and Olly website: http://www.facebook.com/pages/TomOlly/48134819378?ref=ss

Tuning: Standard E A D G

INTRO (ALSO THE CHORUS)
(OH WERE IN TROUBLE, OH OH WERE IN TROUBLE NOW..)
G|-----------------------|
D|-----------------------|
A|--2-2--22-2-2-22-5-----|  x2
E|-----------------------|

(UH OH, UH OH, OH OH OH)
G|------------------|
D|------------------|
A|--5-2-5-5-55-2----|  x1
E|------------------|

INTRO x2
(UH OH  BIT) x1

VERSE

G|--------------------------------------------------------|
D|--------------------------------------------------------|
A|--2-2-22-2-2-22-2---------------------------------------|   x2
E|-------------------3-3-33-3-3-33-3-0--0-00-0-0-00-0-----|

CHORUS x2
(UH OH BIT) x1
VERSE x2
(PAUSE)
VERSE (TILL END)

| /  slide up
| \  slide down
| h  hammer-on
| p  pull-off
| ~  vibrato
| +  harmonic
| x  Mute note
===============================================================================
Suggest correction
Creating personal tab
Creating personal tab
You can edit any tab online and save it as your Personal.

You can edit, replace or remove any tab part or add personal notes – all changes will be seen only by you.

Personal tabs can be accessed anytime from any device, even offline.
Learn more »
Give kudos to tab author, rate the tab!
1 2 3 4 5
comments
print report bad tab
guest
Wanna post a correction for this tab? Suggest correction