Oops, an error
Loading. Please wait.

Day In Verona Tab

434 views 1 this week
no commentswrite comment
1 2 3 4 5
please rate
add to favorites
launch autoscroll
font size
0
reset
how to read this tab
guitar tuner
Autoscroll
slow
fast
+/-
esc
set tempo
stop
Help us to improve Ultimate-Guitar.com Take our survey!
×
Author
Difficulty
intermediate
Tom Baxter - Day In Verona (From the album Feather & Stone)

Tips:- The initial finger positioning can be quite complex to get at first;
watching Tom do it he keeps his second finger (left-hand middle) rooted on the 3rd fret
the bottom E string throughout the intro and verses, likewise the third finger
ring) remains on the B-string throughout the intro and verses. Only the left-hand index 
pinky (first and fourth fingers) should move around the fret board.

Intro

    G             G2            D*             G

E---------3p0-----------2p0-----------0--------------3----------------------|
B------3-------3-------------3-----------3--------------3-------------------|
G---0----------------0-------------0--------0-----0--------0--Play 4 times--|
D-----------------4-------------2--------------0----------------------------|
A---------------------------------------------------------------------------|
E---3-------------3-------------3--------------3----------------------------|


Verse 1

     G            G2            D*             G

We LOST          OURSELVES

E---------3p0-----------2p0-----------0--------------3------------------------|
B------3-------3-------------3-----------3--------------3---------------------|
G---0----------------0-------------0--------0-----0--------0------------------|
D-----------------4-------------2--------------0------------------------------|
A-----------------------------------------------------------------------------|
E---3-------------3-------------3--------------3------------------------------|


You JULIET           And Me ROMEO

E---------3p0-----------2p0-----------0--------------3------------------------|
B------3-------3-------------3-----------3--------------3---------------------|
G---0----------------0-------------0--------0-----0--------0------------------|
D-----------------4-------------2--------------0------------------------------|
A-----------------------------------------------------------------------------|
E---3-------------3-------------3--------------3------------------------------|


...SHADE from the SUN

E---------3-------------------------------------------------------------------|
B------------3----------------------------------------------------------------|
G------0--------0-----0-------------------------------------------------------|
D-----------------------------------------------------------------------------|
A---3-------------------------------------------------------------------------|
E------------------3----------------------------------------------------------|
Suggest correction
Give kudos to tab author, rate the tab!
1 2 3 4 5
comments
print report bad tab
guest
You may want to rate the tab now too:
select rating
Wanna post a correction for this tab? Suggest correction