Oops, an error
Loading. Please wait.

Something New Bump To Buzz Chords

version 1
version 1

Whole song

40,251 views 168 this week
3 commentsread comments
1 2 3 4 5
excellent!
x 36
add to favorites
launch autoscroll
font size
0
reset
transpose
0
reset
simplify chords
display chords
guitar tuner
Autoscroll
slow
fast
+/-
esc
set tempo
stop
Help us to improve Ultimate-Guitar.com Take our survey!
×
Author
Difficulty
intermediate
Song: SOMETHING NEW (BUMP TO BUZZ)
Artist: Tom Fletcher
Tabulated by Aumanology
Chords:
             FM7/G      C/G        G        G/C       C7         E
        e |----3----|----3----|----3----|----3----|----0----|----0----|
        B |----1----|----1----|----0----|----1----|----1----|----0----|
        G |----2----|----0----|----0----|----0----|----3----|----1----|
        D |----3----|----2----|----0----|----0----|----2----|----2----|
        A |----x----|----3----|----2----|----2----|----3----|----2----|
        E |----x----|----x----|----3----|----3----|----x----|----0----|

              Am        D7        FM7*      C/F        C      Gsus/B
        e |----0----|----2----|----0----|----0----|----0----|----x----|
        B |----1----|----1----|----1----|----1----|----1----|----3----|
        G |----2----|----2----|----2----|----0----|----0----|----0----|
        D |----2----|----0----|----4----|----3----|----2----|----0----|
        A |----0----|----x----|----x----|----3----|----3----|----2----|
        E |----x----|----x----|----x----|----x----|----x----|----x----|



[Intro]

FM7/G - C/G - G/C
FM7/G - G/C - C/G

     FM7/G               C/G    G/C
e |-------3-3---3---3-3----3-3----3-3---3-3---3-3---3-3---|
B |---1---1-1---1---1-1----1-1----1-1---1-1---1-1---1-1---|
G |---0h2-2-2---2---2-2----0-0----0-0---0-0---0-0---0-0---|    
D |---3-------3---3---------------------------------------|
A |----------------------3--------------------------------|
E |-----------------------------3-----3-----3-----3-------|

     FM7/G               G/C    C/G
e |-------3-3---3---3-3----3-3----3-3---3-3---3-3---3-3---|
B |---1---1-1---1---1-1----1-1----1-1---1-1---1-1---1-1---|
G |---0h2-2-2---2---2-2----0-0----0-0---0-0---0-0---0-0---|
D |---3-------3---3---------------------------------------|
A |-----------------------------3-----3-----3-----3-------|
E |----------------------3--------------------------------|


[Verse]

                  FM7/G       C/G      G/C - G
It's just another sunrise on another day
             FM7/G                 G/C        C/G - C7
Just another rainbow, well they're all the same
                 FM7/G  E               Am - D7
Let me guess the sunset followed by the moon
            FM7/G - C/G - G/C   
I think I'm ready 
              C/G - C/F - C pause
For something new


[Verse]

                  FM7/G            C/G      G/C - G
It's just another love song about another girl
             FM7/G            G/C       C/G - C7
Just another movie where they save the world
                FM7/G  E                Am - D7
And every rollercoaster does a loop-the-loop
            FM7/G - C/G - G/C
I guess I'm ready 
              C/G - C/F - C
For something new


[Refrain]

        FM7/G          C/G
I'm not saying life is boring
        G/C          C/G
Just predictable sometimes
         FM7/G           C/G         G/C           C/G
When you know the end of every other line is gonna rhyme
FM7*
After every eight you're always gonna find a nine
FM7/G                   G - Am - Gsus/B pause
February second will be cold outside


[Verse]

            FM7/G            C/G     G/C - G
I predict a summer, it isn't very long
                FM7/G                 G/C       C/G - C7
Then before you know it we're singing Christmas song
                 FM7/G  E              Am - D7
And then we get another April, May and June
            FM7/G - C/G - G/C
I think I'm ready
              C 
For something new


[Adlib]
         
It starts with a finger-picking of chord C from the last line of Verse 3. . .
             C                                     
        e |---------------------3-----0------|
        B |------------1h3--3/5---5/3---3p1--|
        G |--------0h2-----------------------|
        D |----0h2---------------------------|
        A |--3-------------------------------|
        E |----------------------------------|

then... FM7/G - E - Am - D7
        FM7/G - C/G - G/C - C/G - C/F - C


[Refrain]

        FM7/G          C/G
I'm not saying life is boring
            G/C           C/G
'Cause it's beautiful sometimes
         FM7/G               C/G
Like the feeling when you're falling
          G/C            C/G
It's like walking on the sky
FM7*
There will come a morning you won't open up your eyes
FM7/G                           G - Am - Gsus/B pause
But it's what you do until that day arrives


[Verse]

                    FM7/G               C/G     G/C - G
You want to touch a mountain or taste a waterfall
                 FM7/G               G/C         C/G - C7
You only have to see one then you've seen them all
            FM7/G  E               Am - D7
Gonna bet tomorrow that the sky is blue
            FM7/G - C/G - G/C
I guess I'm ready
            FM7/G - C/G - G/C
I think I'm ready
           FM7/G - C/G - G/C
I hope I'm ready
              FM7/G - C/G - Fm - AbM7/D - C (see tab below)
For something new


Ending Chords: 
This is just my guess...
            FM7/G  C/G   Fm   AbM7/D  C 
        e |--------------------3------0----|
        B |--1-----1-----1-----1------1----|
        G |--2-----0-----1-----1------0----|
        D |--3-----2-----3-----0------0h2--|
        A |---------------------------3----|
        E |--------------------------------| 

End. . 
NOTE: I'm not sure of the chord names...
Suggest correction
comments
print report bad tab
3 comments total.
+1 reply
Christian R. 144 wrote on April 10 2014, 06:37 pm

Spot on with the ending chords. I couldn't figure those out. Although, I think the Fm and the AbM7/D should be switched, where AbM7/D is played first

0 reply
aumanology 48 wrote on April 13 2014, 04:17 pm, edited on April 15 2014, 04:27 pm

. . .

0 reply
aumanology 48 wrote on April 13 2014, 04:19 pm

When I tabbed the ending chords, I actually considered playing AbM7/D first but finally ended up playing Fm before AbM7/D since it sounds closer to the original version. But I must admit, playing AbM7/D first sounds pretty good too!

guest
You may want to rate the tab now too:
select rating
Wanna post a correction for this tab? Suggest correction