Oops, an error
Loading. Please wait.

Sex Bomb bass

version 1
version 1

Whole song

Interactive

10,287 views 15 this week
1 commentread comment
1 2 3 4 5
x 6
add to favorites
×
Save as Personal and add changes to this tab that will be seen only by you. Learn more ›
×
You can save this tab as Personal to edit and correct it or add notes. All changes will be seen only by you. Learn more »
launch autoscroll
font size
0
reset
guitar tuner
backing track
0:00
0:00
edit
Autoscroll
slow
fast
+/-
esc
set tempo
stop
Title: Sex Bomb
Artist: Tom Jones
Album: ?
Tabber: Steph
Email: cyberbassist@hotmail.com


Intro:
             Ab                                   Eb
G|---------|--------------------------------------------|
D|-6-4-----|--------------------------------------------|
A|-----6-4-|--------------------------------------66----|
E|---------|-4-44-4-44-4-44-4-44-4-44-4-44-4-44-4-------|


Verse:
   Ab    Db  Ab   Eb   Ab   Db   Ab Eb        X2
G|--------------------------------------------|
D|--------------------------------------------|
A|------4-44------6-66------4-44----6--6------|
E|-4-44------4-44------4-44------4-4----4-44--|


Chorus:

G|--------------------------------------------|
D|--------------------------------------------|
A|------4-44------6-66------4-44----6--6------|
E|-4-44------4-44------4-44------4-4----4-44--|

Break: 2:13
   Ab  Gb Ab             Eb  Ab
G|--------------------------------------------|
D|--------------------------------------------|
A|-----------------------6-6------------------|
E|-4\--2h4\--2h4\--2h44------4-4-4-4----------|


G|-------------------------------------------------|
D|-------------------------------------------------|
A|------4-44------6-66------4-44----6--6-----------|
E|-4-44------4-44------4-44------4-4----4-5-6-7-8--|

   C    F    C    G   Bb C   F     C  G
G|-------------------------------------------------|
D|------3-33-----------------3-33------------------|
A|-3-33------3-33------1h3-33------3-3--3-3--------|
E|----------------3-33----------------3----3-------|

Outro:

G|-------------|
D|*-----------*|
A|*-3-3---3-3-*|
E|-----3-----3-|

Keep it simple !
EmJOy!

            
            
Suggest correction
Creating personal tab
Creating personal tab
You can edit any tab online and save it as your Personal.

You can edit, replace or remove any tab part or add personal notes – all changes will be seen only by you.

Personal tabs can be accessed anytime from any device, even offline.
Learn more »
comments
print report bad tab
1 comment total.
0 reply
merlot97 20 Jan 06, 2016 04:12 AM

u could also start with:
G|------------|
D|--4/6-4-----|
A|------6-4---|
E|------------|

guest
Wanna post a correction for this tab? Suggest correction