Oops, an error
Loading. Please wait.

Shes A Lady bass

version 1
version 1

Whole song

  • 101% correct notes and full bass tablature parts.

Interactive

857 views 6 this week
no commentswrite comment
1 2 3 4 5
3 more votes to show rating
add to favorites
×
Save as Personal and add changes to this tab that will be seen only by you. Learn more ›
×
You can save this tab as Personal to edit and correct it or add notes. All changes will be seen only by you. Learn more »
launch autoscroll
font size
0
reset
guitar tuner
edit
Autoscroll
slow
fast
+/-
esc
set tempo
stop
Author
Difficulty
She’s A Lady
Witten by Paul Anka this single released by Tom Jones in 1971 reached
Number 13 in the UK charts. Tab by bass50611. Welcome to my tab of this 
Tom Jones Classic. Not exact, especially in chorus 3 and outro but it 
Does fit the song.  Comments at bass254@btinternet.com 

Intro:
G|----------------------------------------------
D|--------------12h14-----------------12h14-----
A|--------------------------------------------4-
E|-12-12-12-12---------0---12-12-12-12-------5--

Verse:              (Play This x2)
G|---------------------------------
D|--------------------------------
A|-7--7----7--7----5--5----5--5-5-
E|-----7--7----7--7----5--5----5--

Chorus 1:                                 (Break)
G|-----------------------------------------------
D|-----------------------------------------7-8-9-
A|-7--7--------4-5--5----5--5-5--7--7-7----------
E|------5--5--7------5--5----5-------7--5-5------

Repeat Verse:

Repeat Chorus 1:

Bridge:
G|------------------------------------------------------------------
D|------------------------------------------------------------------
A|-----8-8--6-6---------8-8--6-6---------8-8--6-6---------8-8--6-6/-
E|-6-6---------6-6---6-6--------6-6---6-6--------6-6---6-6----------

G|----------------------------------------
D|----------------------------------------
A|-10-10-10-10---12-12-12-12-12-12-12-12\-
E|----------------------------------------

Repeat Verse:

Chorus 2:
G|------------------------------------------------------------
D|-------------------------4-5-6-------7--7-8-9-9-9-9---------
A|-7-77-7--------5--5-----5------7-77-7-----------------------
E|--------5-55-5------5--5----------------------------7-7-7-7-

Chorus 3:
G|-------------------------------------------------------------
D|--------7-77--------------4-5-6------------------------4-5-6-
A|-7-77-7--------4-5--5----5------7-77-7--------5--5----5------
E|--------------7------5--5--------------5-55-5-----5--5-------

Outro:                                     (Repeat To Fade)
G|---------------------------------------------------------
D|------------------------4-5-6-------7-77-----------4-5-6-
A|-7-77-7---------4-5----5-----7-77-7--------4-5----5------
E|--------5-55---7---5--5-------------------7---5--5-------

            
            
Suggest correction
Creating personal tab
Creating personal tab
You can edit any tab online and save it as your Personal.

You can edit, replace or remove any tab part or add personal notes – all changes will be seen only by you.

Personal tabs can be accessed anytime from any device, even offline.
Learn more »
Give kudos to tab author, rate the tab!
1 2 3 4 5
comments
print report bad tab
guest
You may want to rate the tab now too:
select rating
Wanna post a correction for this tab? Suggest correction