Oops, an error
Loading. Please wait.

Shes A Lady bass

version 2
version 2

Whole song

  • 101% correct notes and full bass tablature parts.

Interactive

373 views 15 this week
no commentswrite comment
1 2 3 4 5
3 more votes to show rating
add to favorites
×
Save as Personal and add changes to this tab that will be seen only by you. Learn more ›
×
You can save this tab as Personal to edit and correct it or add notes. All changes will be seen only by you. Learn more »
launch autoscroll
font size
0
reset
guitar tuner
edit
Autoscroll
slow
fast
+/-
esc
set tempo
stop
Author
Difficulty
About this tab version
101% correct notes and full bass tablature parts. Was this info helpful? Yes No
Tom Jones - Shes A Lady
Tempo track: 120 bpm.
Bar's size: 4/4
Tuning: standard (EADG)
Song duration: 2:30


[Intro]
(0:00 - 0:08)

G|-----------------------|--7-9------------------|-----------------------|--7-9------------------|
D|-----------------------|9-----------7-5--------|-----------------------|9-----------7-5--------|
A|-----------------------|----------------7------|-----------------------|----------------7----5-|
E|-----------------------|-----------------------|-----------------------|------------------7----|
  1  &  2  &  3  &  4  &  1  &  2  &  3  &  4  &  1  &  2  &  3  &  4  &  1  &  2  &  3  &  4  &


[Verse 1]
(0:09 - 0:23)
                                                                                   
G|-----------------------|-----------------------|-----------------------|-----------------------|
D|-----------------------|-----------------------|-----------------------|-----------------------|
A|7--7-----7-------------|7--7-----7--------7--6-|5--5-----5-----------5-|5--5-----5--5-----5--6-|
E|------------7--7-----7-|------------7--7-------|------------5--5-------|---------------5-------|
  1  &  2  &  3  &  4  &  1  &  2  &  3  &  4  &  1  &  2  &  3  &  4  &  1  &  2  &  3  &  4  &

G|-----------------------|-----------------------|-----------------------|-----------------------|
D|-----------------------|-----------------------|-----------------------|------------------7----|
A|7--7-----7-------------|7--7--------7-----7--6-|5--5-----5-------------|5--5-----------5-----5-|
E|------------7--7-----7-|---------7-----7-------|------------5--5-----5-|---------5-------------|
  1  &  2  &  3  &  4  &  1  &  2  &  3  &  4  &  1  &  2  &  3  &  4  &  1  &  2  &  3  &  4  &


[Chorus 1]
(0:24 - 0:39)

G|-----------------------|-----------------------|-----------------------|-----------------------|
D|-----------------------|------------7----------|-----------------------|-----------------------|
A|7--7--------7--7-----7-|---------7-----4--5--7-|5--5-----5-------------|5--5-----------5--5--6-|
E|---------7-------------|5--5-------------------|------------5--5-----5-|---------5-------------|
  1  &  2  &  3  &  4  &  1  &  2  &  3  &  4  &  1  &  2  &  3  &  4  &  1  &  2  &  3  &  4  &

G|-----------------------|-----------------------|-----------------------|-----------------------|
D|-----------------------|------------7--7----7-8|9----------------------|-----------------------|
A|7--7--------7--7-----7-|---------7-------------|-----------------------|-----------------------|
E|---------7-------------|5--5-------------------|-----------------------|-----------------------|
  1  &  2  &  3  &  4  &  1  &  2  &  3  &  4  &  1  &  2  &  3  &  4  &  1  &  2  &  3  &  4  &


[Verse 2]
(0:40 - 0:55)
                                                                                   
G|-----------------------|-----------------------|-----------------------|-----------------------|
D|-----------------------|-----------------------|-----------------------|---------------4--5--7-|
A|7--7-----7-------------|7--7-----7--------7--6-|5--5-----5-------------|5--5-----5--5----------|
E|------------7--7-----7-|------------7--7-------|------------5--5-----5-|-----------------------|
  1  &  2  &  3  &  4  &  1  &  2  &  3  &  4  &  1  &  2  &  3  &  4  &  1  &  2  &  3  &  4  &

G|-----------------------|-----------------------|-----------------------|-----------------------|
D|-----------------------|-----------------------|-----------------------|------------------7----|
A|7--7-----7-------------|7--7-----7--------7--6-|5--5-----5-------------|5--5-----------5-----5-|
E|------------7--7-----7-|------------7--7-------|------------5--5-----5-|---------5-------------|
  1  &  2  &  3  &  4  &  1  &  2  &  3  &  4  &  1  &  2  &  3  &  4  &  1  &  2  &  3  &  4  &


[Chorus 2]
(0:56 - 1:11)

G|-----------------------|-----------------------|-----------------------|-----------------------|
D|-----------------------|------------7--5-------|-----------------------|---------------4--5--7-|
A|7--7--------7--7-----7-|---------7--------7--6-|5--5-----5-----------5-|5--5-----5-------------|
E|---------7-------------|5--5-------------------|------------5--5-------|-----------------------|
  1  &  2  &  3  &  4  &  1  &  2  &  3  &  4  &  1  &  2  &  3  &  4  &  1  &  2  &  3  &  4  &

G|-----------------------|------------------7----|-----------------------|-----------------------|
D|-----------------------|------------7--7----7-8|9----------------------|---------------------9-|
A|7--7--------7--7-----7-|---------7-------------|-----------------------|------------------9----|
E|---------7-------------|5--5-------------------|-----------------------|-----------------------|
  1  &  2  &  3  &  4  &  1  &  2  &  3  &  4  &  1  &  2  &  3  &  4  &  1  &  2  &  3  &  4  &


[Bridge]
(1:12 - 1:33)

G|-----------------------|-----------------------|-----------------------|-----------------------|
D|8--8--8--8--7---7-7----|---5--8--8--------5--8-|8--8--8--8--7-----7----|------5----------------|
A|----------------------6|6--------------8-------|-----------------------|6--------6-------------|
E|-----------------------|-----------------------|-----------------------|------------6--6--6--6-|
  1  &  2  &  3  &  4  &  1  &  2  &  3  &  4  &  1  &  2  &  3  &  4  &  1  &  2  &  3  &  4  &

G|-----------------------|-----------------------|-----------------------|-----------------------|
D|-----------------------|---5--8--8-------------|8-----8--8--7-----7----|-----------------------|
A|-----------------------|6----------6------5--8-|---------------------8-|6-----6----/10-10-10-10|
E|6-----6-----5-----5----|------------6--6-------|-----------------------|-----------------------|
  1  &  2  &  3  &  4  &  1  &  2  &  3  &  4  &  1  &  2  &  3  &  4  &  1  &  2  &  3  &  4  &

G|-----------------------|-----------13/14-13/14-|13/14-13/14-|
D|-----------------------|-----------------------|------------|
A|10-10-10-10-12-12-12-12|12-12-12-12------------|------------|
E|-----------------------|-----------------------|------------|
  1  &  2  &  3  &  4  &  1  &  2  &  3  &  4  &  1  &  2  &


[Verse 3]
(1:34 - 1:49)

G|-----------------------|-----------------------|-----------------------|-----------------------|
D|-----------------------|-----------------------|-----------------------|-----------------------|
A|7--7-----7-------------|7--7-----7--------7--6-|5--5-----5-------------|5--5--------5-----5--6-|
E|------------7--7-----7-|------------7--7-------|------------5--5-----5-|---------5-----5-------|
  1  &  2  &  3  &  4  &  1  &  2  &  3  &  4  &  1  &  2  &  3  &  4  &  1  &  2  &  3  &  4  &

G|-----------------------|-----------------------|-----------------------|-----------------------|
D|-----------------------|-----------------------|-----------------------|-----------------------|
A|7--7-----7-------------|7--7-----7--------7--6-|5--5-----5-------------|5--5-----5--5-----5--6-|
E|------------7--7-----7-|------------7--7-------|------------5--5-----5-|---------------5-------|
  1  &  2  &  3  &  4  &  1  &  2  &  3  &  4  &  1  &  2  &  3  &  4  &  1  &  2  &  3  &  4  &


[Chorus 3]
(1:50 - 2:05)

G|-----------------------|-----------------------|-----------------------|-----------------------|
D|-----------------------|------------7----------|-----------------------|---4-----5-----6-----7-|
A|7--7--------7--7-----7-|---------7----------5-7|5--5-----5-------------|5----------------------|
E|---------7-------------|5--5-------------------|------------5--5-----5-|-----------------------|
  1  &  2  &  3  &  4  &  1  &  2  &  3  &  4  &  1  &  2  &  3  &  4  &  1  &  2  &  3  &  4  &

G|-----------------------|-----------------------|-----------------------|-----------------------|
D|--------------------7-9|7--7--------7--7-----7-|9-----------------9\---|-----------------------|
A|7--7--------7--7-------|---------7-------------|-----------------------|2----------------------|
E|---------7-------------|-----------------------|-----------------------|-----------------------|
  1  &  2  &  3  &  4  &  1  &  2  &  3  &  4  &  1  &  2  &  3  &  4  &  1  &  2  &  3  &  4  &


[Chorus 4]
(2:06 - 2:22)

G|-----------------------|-----------------------|-----------------------|-----------------------|
D|---------------------9-|7--7-------------------|-----------------------|---4-----5-----6-----7-|
A|7--7--------7--7-------|---------7-----4--5--7-|5--5-----5-----------5-|-----------------------|
E|---------7-------------|------------5----------|------------5--5-------|-----------------------|
  1  &  2  &  3  &  4  &  1  &  2  &  3  &  4  &  1  &  2  &  3  &  4  &  1  &  2  &  3  &  4  &

G|-----------------------|-----------------------|-----------------------|-----------------------|
D|-----------------------|-----------------------|------------7--7-----7-|---------7-------------|
A|7--7--------7--7-------|---------4-----5-----7-|5--5-----5-------------|5--5--------5-----5--6-|
E|---------7-----------7-|5--5-------------------|-----------------------|---------------5-------|
  1  &  2  &  3  &  4  &  1  &  2  &  3  &  4  &  1  &  2  &  3  &  4  &  1  &  2  &  3  &  4  &


[Chorus 5]
(2:23 - to the end)

G|-----------------------|-----------------------|-----------------------|-----------------------|
D|-----------------------|------------7----------|-----------------------|---4-----5-----6-----7-|
A|7--7--------7--7-----7-|---------7-----4--5--7-|5--5-----5-----------5-|-----------------------|
E|---------7-------------|5--5-------------------|------------5--5-------|-----------------------|
  1  &  2  &  3  &  4  &  1  &  2  &  3  &  4  &  1  &  2  &  3  &  4  &  1  &  2  &  3  &  4  &

G|------------9--9-------|---------6-----7--8--9-|7--7-----7-------------|-----------------------|
D|---------9-----------9-|7-----7-7-----7--------|------------7--7-------|---4-----5-----6-----7-|
A|7--7-------------------|-----------------------|---------------------5-|-----------------------|
E|-----------------------|-----------------------|-----------------------|-----------------------|
  1  &  2  &  3  &  4  &  1  &  2  &  3  &  4  &  1  &  2  &  3  &  4  &  1  &  2  &  3  &  4  &


[Outro]

G|-----------------------|-----------------------|-----------------------|-----------------------|
D|-----------------------|------------7--7----7-8|9----------------------|-----------------------|
A|7--7--------7--7-------|---------7-------------|-----------------------|-----------------------|
E|---------7-----------7-|5--5-------------------|-----------------------|-----------------------|
  1  &  2  &  3  &  4  &  1  &  2  &  3  &  4  &  1  &  2  &  3  &  4  &  1  &  2  &  3  &  4  & 

(fade out)


**************************

| \ slide down
| / slide up

**************************
Suggest correction
Creating personal tab
Creating personal tab
You can edit any tab online and save it as your Personal.

You can edit, replace or remove any tab part or add personal notes – all changes will be seen only by you.

Personal tabs can be accessed anytime from any device, even offline.
Learn more »
Give kudos to tab author, rate the tab!
1 2 3 4 5
comments
print report bad tab
guest
You may want to rate the tab now too:
select rating
Wanna post a correction for this tab? Suggest correction