Oops, an error
Loading. Please wait.

Sixes And Sevens To Me tab

7 views 1 this week
no commentswrite comment
1 2 3 4 5
3 more votes to show rating
add to favorites
×
Save as Personal and add changes to this tab that will be seen only by you. Learn more ›
×
You can save this tab as Personal to edit and correct it or add notes. All changes will be seen only by you. Learn more »
launch autoscroll
font size
0
reset
how to read this tab
guitar tuner
edit
Autoscroll
slow
fast
+/-
esc
set tempo
stop
Author
Difficulty
[Intro] 
e|----7--9--7---10-10-10--12harm--7harm--------------------------------------|
B|----7--7--7---10-10-10--12harm--7harm--------------------------------------|
G|----7--7--7---10-10-10--12harm--7harm--------------------------------------|
D|----7--7--7---10-10-10--12harm--7harm--------------------------------------|
A|---------------------------------------------------------------------------|
E|---------------------------------------------------------------------------|

     G9   E9  D#9 D9   G9   E9  D#9 D9  G9 G9  G9 F#9    F9    E9
e|---------------------------------------------------------------------------|
B|---10---7---6---5----10---7---6---5---10-10--10--9-9---8-8---7-------------|
G|---10---7---6---5----10---7---6---5---10-10--10--9-9---7-7---6-------------|
D|----9---6---5---4-----9---6---5---4----9--9---9--8-8---8-8---7-------------|
A|---10---7---6---5----10---7---6---5---10-10--10--9-9---8-8---7-------------|
E|---------------------------------------------------------------------------|

     A7    A7      D7        D7
e|---5-5---5-5-----10----x---10----------------------------------------------|
B|---5-5---5-5-----10----x---10----------------------------------------------|
G|---6-6---6-6-----11----x---11----------------------------------------------|
D|---5-5---5-5-----10----x---10----------------------------------------------|
A|---7-7---7-7-----12----x---12----------------------------------------------|
E|---5-5---5-5-----10----x---10----------------------------------------------|

     G9   E9  D#9 D9   G9   E9  D#9 D9  G9 G9  G9  F#9   F9    E9
e|---------------------------------------------------------------------------|
B|---10---7---6---5----10---7---6---5---10-10--10--9-9---8-8---7-------------|
G|---10---7---6---5----10---7---6---5---10-10--10--9-9---7-7---6-------------|
D|----9---6---5---4-----9---6---5---4----9--9---9--8-8---8-8---7-------------|
A|---10---7---6---5----10---7---6---5---10-10--10--9-9---8-8---7-------------|
E|---------------------------------------------------------------------------|

     A7    A7      D7   D7    G7    G7
e|---5-----5-------10---10----3--x--3----------------------------------------|
B|---5-----5-------10---10----3--x--3----------------------------------------|
G|---6-----6-------11---11----4--x--4----------------------------------------|
D|---5-----5-------10---10----3--x--3----------------------------------------|
A|---7-----7-------12---12----5--x--5----------------------------------------|
E|---5-----5-------10---10----3--x--3----------------------------------------|


    B7   A#7  A7  D9  D7


     G9   E9  D#9 D9   G9   E9  D#9 D9  G9 G9  G9  F#9   F9    E9
e|---------------------------------------------------------------------------|
B|---10---7---6---5----10---7---6---5---10-10--10--9-9---8-8---7-------------|
G|---10---7---6---5----10---7---6---5---10-10--10--9-9---7-7---6-------------|
D|----9---6---5---4-----9---6---5---4----9--9---9--8-8---8-8---7-------------|
A|---10---7---6---5----10---7---6---5---10-10--10--9-9---8-8---7-------------|
E|---------------------------------------------------------------------------|

     A7    A7       D7   D7   G7    G7
e|---5-----5-------10---10----3--x--3----------------------------------------|
B|---5-----5-------10---10----3--x--3----------------------------------------|
G|---6-----6-------11---11----4--x--4----------------------------------------|
D|---5-----5-------10---10----3--x--3----------------------------------------|
A|---7-----7-------12---12----5--x--5----------------------------------------|
E|---5-----5-------10---10----3--x--3----------------------------------------|

[Verse]
      G9         E9        D#9         D9
Well one for the money and two for the show
       G9             E9         D#9    D9
But at three to get ready won’t work no more
       G9       F#9    F9    E9    A7                  D7
Better see that number comin’  its sixes and sevens to me
          G9         E9   D#9    D9
You could put your loaded dice away
    G9      E9        D#9     D9
For me its snake eyes all the way
       G9       F#9    F9    E9    A7        D7        G7
When I see that number comin’….its sixes and sevens to me

B7
Bank account numbers (yeah man!)
A#7
Telephone numbers  (no man!)
A7
Waiting line number (oh man!)
          D9                        D7
You know some things just don’t add up

[Chorus]
        G9       E9       D#9     D9
Well as sure as five will get you ten
     G9       E9       D#9     D9
I’m going to cross her path again
       G9       F#9    F9    E9    A7        D7        G7
Better see that number comin’…its sixes and sevens to me

[Horn Solo] 
(Guitar plays chords below)

C7    A7   G#7   G7   C7    A7   G#7   G7  C7  B7   A#7   A7  D7   G7
C7    A7   G#7   G7   C7    A7   G#7   G7  C7  B7   A#7   A7  D7   G7  Cmaj

[Verse]
B7
Bank account numbers (yeah man!)
A#7
Telephone numbers  (no man!)
A7
Waiting line number (oh man!)

[Guitar Solo] 
(whole lotta ninth chords)

e|-13-12-8--7-6-7--14-13-12--8-8-8--5-5-5--5-5-5--6-6-6--5-5-5---------------|
B|-13-12-8--7-6-7--14-13-12--8-8-8--5-5-5--5-5-5--6-6-6--5-5-5---------------|
G|-13-12-8--7-6-7--14-13-11--8-8-8--5-5-5--5-5-5--6-6-6--5-5-5---------------|
D|-13-11-7--6-5-6--13-12-12--7-7-7--4-4-4--5-5-5--5-5-5--5-5-5---------------|
A|-12-12-8--7-6-7--14-13-12--8-8-8--5-5-5--5-5-5--6-6-6--5-5-5---------------|
E|---------------------------------------------------------------------------|

[Verse]
Oh man c’mon shut up!!!

[Chorus]
        G9      E9        D#9     D9
But as sure as five will get you ten
     G9      E9        D#9     D9
I’m going to cross her path again
       G9       F#9    F9    E9    A7        D7        G7
Better see that number comin’…its sixes and sevens oh baby!!

That’s my specialty!
Suggest correction
Creating personal tab
Creating personal tab
You can edit any tab online and save it as your Personal.

You can edit, replace or remove any tab part or add personal notes – all changes will be seen only by you.

Personal tabs can be accessed anytime from any device, even offline.
Learn more »
Give kudos to tab author, rate the tab!
1 2 3 4 5
comments
print report bad tab
guest
You may want to rate the tab now too:
select rating
Wanna post a correction for this tab? Suggest correction