Oops, an error
Loading. Please wait.

Beautiful Escape intro tab

2,065 views 42 this week
2 commentsread comments
1 2 3 4 5
x 3
add to favorites
×
Save as Personal and add changes to this tab that will be seen only by you. Learn more ›
×
You can save this tab as Personal to edit and correct it or add notes. All changes will be seen only by you. Learn more »
launch autoscroll
font size
0
reset
how to read this tab
guitar tuner
edit
Autoscroll
slow
fast
+/-
esc
set tempo
stop
Author
Difficulty
About this tab version
This is the main riff that is used through the entire song. Was this info helpful? Yes No
Artist: Tom Misch
Song: Beautiful Escape
Part of the song: Main Riff (not really the intro)

There already is a great tab for the chords of the whole song, so here I intend to have you rock that 
amazing riff Tom wrote for the song. Mind you that this is the studio version. There is a live version on
YouTube where the whole song is 2 frets lower (original is in D#m, live is in C#m). I recommend checking out
the YouTube version (https://www.youtube.com/watch?v=OSVUYSaU17g) where you can slow down the song 50%. 
This will help you get the timing right, which is very important to making the riff sound right! 

Last note: in the studio version there is a dubbed guitar 1 octave higher playing the exact same riff.


Main Riff (Post-Chorus)

                  >     >
e|---------------------------|----------------------------|
B|----------------6p5---8--6-|----------------------------|
G|------------5h7-----7------|-7/9-7/9--5-----5h7~~-------|
D|-----3h5-/7----------------|-------------7--------------|
A|-3h5-----------------------|----------------------------|
E|---------------------------|----------------------------|


Main Riff (YouTube live version)

                  >     >
e|---------------------------|----------------------------|
B|----------------4p3---6--4-|----------------------------|
G|------------3h5-----5------|-5/7-5/7--3-----3h5~~-------|
D|-----1h3-/5----------------|-------------5--------------|
A|-1h3-----------------------|----------------------------|
E|---------------------------|----------------------------|


************************************

| h   Hammer-on
| p   Pull-off
| >   Accented note
| /   Slide up
| ~   Vibrato

************************************

            
            
Suggest correction
Creating personal tab
Creating personal tab
You can edit any tab online and save it as your Personal.

You can edit, replace or remove any tab part or add personal notes – all changes will be seen only by you.

Personal tabs can be accessed anytime from any device, even offline.
Learn more »
Give kudos to tab author, rate the tab!
1 2 3 4 5
comments
print report bad tab
2 comments total.
0 reply
gregaldo932 10 May 17, 2017 05:03 PM

^ totally agree with this tab, very accurate and exactly the same as what I had! Where is the great tab for the chords used in the song though? I've been wanting to get them right for ages and haven't been able to find them.

0 reply
bvice 358 May 22, 2017 04:41 AM

Thank you! This is the tab I was referencing: https://tabs.ultimate-guitar.com/t/tom_misch/beautiful_escape_acoustic_crd.htm

guest
You may want to rate the tab now too:
select rating
Wanna post a correction for this tab? Suggest correction