Oops, an error
Loading. Please wait.

Day 1 Ephemeral tab

version 2
version 2

Whole song

  • Full guitar tab with all noticeable parts. Great upbeat funk sound.
  • This version includes the main riff and chords. Some fills have been left out.
121 views 12 this week
no commentswrite comment
1 2 3 4 5
3 more votes to show rating
add to favorites
×
Save as Personal and add changes to this tab that will be seen only by you. Learn more ›
×
You can save this tab as Personal to edit and correct it or add notes. All changes will be seen only by you. Learn more »
launch autoscroll
font size
0
reset
how to read this tab
guitar tuner
edit
Autoscroll
slow
fast
+/-
esc
set tempo
stop
About this tab version
This version includes the main riff and chords. Some fills have been left out. Was this info helpful? Yes No
[Intro]
e|----|--------|--------|--------|
B|-5--|-7--8---|---10~--|---8~---|
G|-5--|-7--9---|---9h11~|---7h9~-|
D|-5--|-7--9---|---9~---|---7~---|
A|----|--------|--(10)--|--(8)---|
E|(5)-|(7)(8)--|--------|--------|

[Main Riff]
                                                          (Play this 2x)
e|-10-12----10--------------------|---------------------------------------------|
B|-------12----10-12-8-10---8-----|---------------------------------------------|
G|------------------------9---7-9-|---------------------------------------------|
D|--------------------------------|-9\7-5-----5~--h7--------------5~--h7--------|
A|--------------------------------|-------7-5-----------------5h7---------------|
E|--------------------------------|---------------------------------------------|

[Main Chords]
(Keep rhythmically hitting muted strings inbetween the chords. Bass notes can
be played or muted.)
e|-------------------|----------------|---------------------------|--------------|
B|-5--5--5--5-5-5-5--|--7-7-7-7---8---|---10--10--10--10-10-10-10-|--8-8-8-8---5-|
G|-5--5--5--5-5-5-5--|--7-7-7-7---8---|---11--11--11--11-11-11-11-|--9-9-9-9---6-|
D|-5--5--5--5-5-5-5--|--7-7-7-7---9---|---9---9---9---9--9--9--9--|--7-7-7-7---4-|
A|-------------------|----------------|---10--10--10--10-10-10-10-|--8-8-8-8---5-|
E|-5--5--5--5-5-5-5--|--7-7-7-7---8---|---------------------------|--------------|


************************************

| h   Hammer-on
| /   Slide up
| \   Slide down
| ~   Vibrato

************************************

            
            
Suggest correction
Creating personal tab
Creating personal tab
You can edit any tab online and save it as your Personal.

You can edit, replace or remove any tab part or add personal notes – all changes will be seen only by you.

Personal tabs can be accessed anytime from any device, even offline.
Learn more »
Give kudos to tab author, rate the tab!
1 2 3 4 5
comments
print report bad tab
guest
You may want to rate the tab now too:
select rating
Wanna post a correction for this tab? Suggest correction