Oops, an error
Loading. Please wait.

Man Like You solo tab

4,399 views 66 this week
8 commentsread comments
1 2 3 4 5
x 10
add to favorites
×
Save as Personal and add changes to this tab that will be seen only by you. Learn more ›
×
You can save this tab as Personal to edit and correct it or add notes. All changes will be seen only by you. Learn more »
launch autoscroll
font size
0
reset
how to read this tab
guitar tuner
edit
Autoscroll
slow
fast
+/-
esc
set tempo
stop
Author
Difficulty
---------------------------------------------------------------------------------------------------------------
                                          Artist - Tom Misch
                                         ********************
                                         Song - Man Like You 
                                        *********************
                                         Tabbed By - Ayreon77
                                        **********************
---------------------------------------------------------------------------------------------------------------
Tuning = Standard

p   = Pull Off
h   = Hammer On
b   = Bend
H   = Harmonic
/   = Slide

                                    This was a request for the solo.


                                                                                  s
e|------------|---------------|------------------|-----------------------6-8-9--11\-|
B|------------|---------------|------------------|-------------------6-9------------|
G|--h--6--6-6-|-8-5-----------|-------s----------|---------------6-8----------------|
D|-6-8--------|------8-6--4-3-|-4-6--1\3-------s-|-----------6-8--------------------|
A|------------|---------------|----------6-4~~~\-|--h--4-6-8------------------------|
E|------------|---------------|------------------|-4-6------------------------------|

    h  p p
e|-9-11-9-8-9-11-9-8----------------------------|--------s-|------8-9---------|
B|-------------------11-9-7-6-------6-------b---|-6-9-6~~\-|-9-11-----11~~~~~-|
G|----------------------------8-6-8---6-----6~~-|----------|------------------|
D|--------------------------------------8-8-----|----------|------------------|
A|----------------------------------------------|----------|------------------|
E|----------------------------------------------|----------|------------------|


e|-11-13~~~-|-16--13-14--11-13--9-11-----9-------------------------------|--------------------------|
B|----------|-------------------------11----9-11--6-9----6---------------|--------------------------|
G|----------|------------------------------------------8----6-8----6-----|--------------------------|
D|----------|----------------------------------------------------8---8~~-|-6-8--4-6----4------------|
A|----------|------------------------------------------------------------|-----------6----4-6--3~~~-|
E|----------|------------------------------------------------------------|--------------------------|

                s      H   h  p p           
e|-------------9\-|---11--9-11-9-8-9-11-9-8--------------------------|----------------|-------------|
B|---------6-9----|-9-----------------------11-9-7-6-------6-6-------|----------------|-------------|
G|-------6--------|----------------------------------8-6-8-----------|----------------|-------------|
D|-----6----------|--------------------------------------------8-8~~-|-6--s---------s-|--s-s----s-s-|
A|-4-8------------|--------------------------------------------------|---8\6-4-----4\-|-6\5\4--6\8\-|
E|----------------|--------------------------------------------------|---------6-6----|-------------|



ENJOY..............

            
            
Suggest correction
Creating personal tab
Creating personal tab
You can edit any tab online and save it as your Personal.

You can edit, replace or remove any tab part or add personal notes – all changes will be seen only by you.

Personal tabs can be accessed anytime from any device, even offline.
Learn more »
comments
print report bad tab
8 comments total. Showing first comments.
0 reply
Theonlyturtle 10 Feb 24, 2016 02:23 PM

THANK YOU!!!!!

+1 reply
ayreon77 21,833 Feb 24, 2016 03:09 PM

yea no prob, good luck with it

+5 reply
daniel.duecki 10 Sep 06, 2016 06:38 AM

Could you do the tabs of "The Journey" from Tom Misch? Would be awesome!

guest
You may want to rate the tab now too:
select rating
Wanna post a correction for this tab? Suggest correction