Oops, an error
Loading. Please wait.

Face Off Tab

version 3
version 3

Whole song

Interactive

3,500 views 3 this week
no commentswrite comment
1 2 3 4 5
2 more votes to show rating
add to favorites
launch autoscroll
font size
0
reset
how to read this tab
guitar tuner
Autoscroll
slow
fast
+/-
esc
set tempo
stop
Help us to improve Ultimate-Guitar.com Take our survey!
×
Author
Hey guitar players,
This is my first tab, so please rate it for me!
Tuning is flat so....(EbAbDbGbBbEb)

E/--------------------Bring it------12s18-17soff---come on!---------------/
B/------------------------------------------------------------------------/
G/------------------------------------------------------------------------/
D/---2--2----------------0------2--2-------5--7---------------------------/
A/--------0------0-----0---0---------0-----5--7---------------------------/
E/----------3-0----3-0-------0---------3-0-3--5---------------------------/



E/-----------------------------------------------------Sh$t!--------------/
B/------------------------------------------------------------------------/
G/------------------------------------------------------------------------/
D/---2--2----------------0------2--2-------7-5----------------------------/
A/--------0------0-----0---0---------0---------7-5------------------------/
E/----------3-0----3-0-------0---------3-0---------5-3-0------------------/



E/----------------------------------------quack-quack---------------------/
B/------------------------------------------------------------------------/
G/------------------------------------------------------------------------/
D/---2--2----------------0------2--2-------5--7---------------------------/
A/--------0------0-----0---0---------0-----5--7---------------------------/
E/----------3-0----3-0-------0---------3-0-3--5---------------------------/



E/-----------------------------12-----------------------------------------/
B/------------------------------------------------------------------------/
G/------------------------------------------------------------------------/
D/---2--2----------------0------------------------------------------------/
A/--------0------0-----0---0----------------------------------------------/
E/----------3-0----3-0-------0-0-muted-0-0-0-0-0-0-0-0-0-0-0-0-0-0-0....../
Suggest correction
Give kudos to tab author, rate the tab!
1 2 3 4 5
comments
print report bad tab
guest
You may want to rate the tab now too:
select rating
Wanna post a correction for this tab? Suggest correction