Oops, an error
Loading. Please wait.

Guitar Battle Vs Tom Morello Bass Tab

1,374 views 3 this week
no commentswrite comment
1 2 3 4 5
please rate
add to favorites
launch autoscroll
font size
0
reset
guitar tuner
Autoscroll
slow
fast
+/-
esc
set tempo
stop
Help us to improve Ultimate-Guitar.com Take our survey!
×
Author
Difficulty
Tuning
novice
D A D G B E
Tuning: Drop D: DADG
Bass comes in with drums (On the section "Nose To The Grind" on Guitar Hero 3)
G|--------------------------------------|
D|--------------------------------------|
A|----5h7----5---5-7------5h7----5------|
D|0-0------0----0-----0-0------0---0-7-5|

G|--------------------------------------|
D|------------------------------------5-|
A|----5h7----5---5-7------5h7----5--57-7|
D|0-0------0----0-----0-0------0---0----|
Play 8 times then

G|--------------------------------------|
D|--------------------------------------|
A|--------------------------------------|
D|0~~~~~~~~~~~~~~~~~~~~~~~~~~~~~~~~~~~~~|
Suggest correction
Give kudos to tab author, rate the tab!
1 2 3 4 5
comments
print report bad tab
guest
You may want to rate the tab now too:
select rating
Please do not post tabs as comments. Select "correction" instead!