Oops, an error
Loading. Please wait.

I Know Bass Tab

766 views 342 this week
no commentswrite comment
1 2 3 4 5
3 more votes to show rating
add to favorites
launch autoscroll
font size
0
reset
guitar tuner
Autoscroll
slow
fast
+/-
esc
set tempo
stop
Help us to improve Ultimate-Guitar.com Take our survey!
×
Author
Difficulty
novice
About this tab version
It's the first ever bass tab for any of Tom O'Dell's song. This tab involves more bass than the original, but it makes it more fun to play as a bass player, and can be used as a backbone to work from if you wanted to adapt this song. Was this info helpful? Yes No
More of an adaptation, putting more bass into the song.
Let me know if you have any thoughts about this tab or anything else. 
jspcowell@gmail.com
- Cowley

[Intro] (0:14)
G|---------------------------------------------------------------------------|
D|---------------------------------------------------------------------------|
A|---------------------------------2-------4-------2-------4-----------------|
E|-2-------6-------2-------6-------------------------------------------------|
   1 & 2 & 3 & 4 & 1 & 2 & 3 & 4 & 1 & 2 & 3 & 4 & 1 & 2 & 3 & 4 & 

[Verse]
G|---------------------------------------------------------------------------|
D|---------------------------------------------------------------------------|
A|---------------------------------2-------4-------2-------4-----------------|
E|-2-------6-------2-------6-------------------------------------------------|
   1 & 2 & 3 & 4 & 1 & 2 & 3 & 4 & 1 & 2 & 3 & 4 & 1 & 2 & 3 & 4 & 

G|---------------------------------------------------------------------------|
D|---------------------------------------------------------------------------|
A|---------------------------------2---2---4-4-4-4-2---2---4-4-4-4-----------|
E|-2---2---6-6-6-6-2---2---6-6-6-6-------------------------------------------|
   1 & 2 & 3 & 4 & 1 & 2 & 3 & 4 & 1 & 2 & 3 & 4 & 1 & 2 & 3 & 4 &  

[Chorus]
G|---------------------------------------------------------------------------|
D|---------------------------------------------------------------------------|
A|-2---2---2-2-2-2-----------------6---6---6-6-6-6-4---4---4-4-4-4-----------|
E|-----------------4---4---4-4-4-4-------------------------------------------|
   1 & 2 & 3 & 4 & 1 & 2 & 3 & 4 & 1 & 2 & 3 & 4 & 1 & 2 & 3 & 4 &  

G|---------------------------------------------------------------------------|
D|---------------------------------------------------------------------------|
A|-2---2---2-2-2-2-----------------6---6---6-6-6-6-4---4---4-4-4-4-----------|
E|-----------------4---4---4-4-4-4-------------------------------------------|
   1 & 2 & 3 & 4 & 1 & 2 & 3 & 4 & 1 & 2 & 3 & 4 & 1 & 2 & 3 & 4 &  

[Post-Chorus]
G|---------------------------------------------------------------------------|
D|---------------------------------------------------------------------------|
A|---------------------------------2---2---4---4---2---2---4---4-------------|
E|-2---2---6---6---2---2---6---6---------------------------------------------|
   1 & 2 & 3 & 4 & 1 & 2 & 3 & 4 & 1 & 2 & 3 & 4 & 1 & 2 & 3 & 4 & 

[Verse]
G|---------------------------------------------------------------------------|
D|---------------------------------------------------------------------------|
A|---------------------------------2-------4-------2-------4-----------------|
E|-2-------6-------2-------6-------------------------------------------------|
   1 & 2 & 3 & 4 & 1 & 2 & 3 & 4 & 1 & 2 & 3 & 4 & 1 & 2 & 3 & 4 & 

G|---------------------------------------------------------------------------|
D|---------------------------------------------------------------------------|
A|---------------------------------2---2---4-4-4-4-2---2---4-4-4-4-----------|
E|-2---2---6-6-6-6-2---2---6-6-6-6-------------------------------------------|
   1 & 2 & 3 & 4 & 1 & 2 & 3 & 4 & 1 & 2 & 3 & 4 & 1 & 2 & 3 & 4 &  

[Chorus]

G|---------------------------------------------------------------------------|
D|---------------------------------------------------------------------------|
A|-2---2---2-2-2-2-----------------6---6---6-6-6-6-4---4---4-4-4-4-----------|
E|-----------------4---4---4-4-4-4-------------------------------------------|
   1 & 2 & 3 & 4 & 1 & 2 & 3 & 4 & 1 & 2 & 3 & 4 & 1 & 2 & 3 & 4 &  

G|---------------------------------------------------------------------------|
D|---------------------------------------------------------------------------|
A|-2---2---2-2-2-2-----------------6---6---6-6-6-6-4---4---4-4-4-4-----------|
E|-----------------4---4---4-4-4-4-------------------------------------------|
   1 & 2 & 3 & 4 & 1 & 2 & 3 & 4 & 1 & 2 & 3 & 4 & 1 & 2 & 3 & 4 &  

[Bridge 2:24] 
G|-------------------------------------------------------------------------------------------------------|
D|-------------------------------------------------------------------------------------------------------|
A|-2---6---4-----------------------2---6---4-----------------------2---6---4-------2-------3-------------|
E|-------------4---------------------------------------------------------------4-------4-----------------|
   1 & 2 & 3 & 4 & 1 & 2 & 3 & 4 & 1 & 2 & 3 & 4 & 1 & 2 & 3 & 4 & 1 & 2 & 3 & 4 & 1 & 2 & 3 & 4 &  

[Chorus 3:05]
G|---------------------------------------------------------------------------|
D|---------------------------------------------------------------------------|           Build Up
A|-2-2-2-2-2-2-2-2-----------------6-6-6-6-6-6-6-6-4-4-4-4-4-4-4-4-----------|            Volume
E|-----------------4-4-4-4-4-4-4-4-------------------------------------------|
   1 & 2 & 3 & 4 & 1 & 2 & 3 & 4 & 1 & 2 & 3 & 4 & 1 & 2 & 3 & 4 &  
G|---------------------------------------------------------------------------|
D|---------------------------------------------------------------------------|
A|-2---2---2-2-2-2-----------------6---6---6-6-6-6-4---4---4-4-4-4-----------|
E|-----------------4---4---4-4-4-4-------------------------------------------|
   1 & 2 & 3 & 4 & 1 & 2 & 3 & 4 & 1 & 2 & 3 & 4 & 1 & 2 & 3 & 4 &  

G|---------------------------------------------------------------------------|
D|---------------------------------------------------------------------------|
A|-2---2---2-2-2-2-----------------6---6---6-6-6-6-4---4---4-4-4-4-----------|
E|-----------------4---4---4-4-4-4-------------------------------------------|
   1 & 2 & 3 & 4 & 1 & 2 & 3 & 4 & 1 & 2 & 3 & 4 & 1 & 2 & 3 & 4 &  
Suggest correction
Give kudos to tab author, rate the tab!
1 2 3 4 5
comments
print report bad tab
guest
You may want to rate the tab now too:
select rating
Wanna post a correction for this tab? Suggest correction