Oops, an error
Loading. Please wait.

A Face In The Crowd tab

version 1
version 1

Whole song

Interactive

721 views 9 this week
no commentswrite comment
1 2 3 4 5
3 more votes to show rating
add to favorites
×
Save as Personal and add changes to this tab that will be seen only by you. Learn more ›
×
You can save this tab as Personal to edit and correct it or add notes. All changes will be seen only by you. Learn more »
launch autoscroll
font size
0
reset
how to read this tab
guitar tuner
edit
Autoscroll
slow
fast
+/-
esc
set tempo
stop
Author
Difficulty
A FACE IN THE CROWD

As recorded by Tom Petty
(From the 1989 Album FULL MOON FEVER)

Words and Music by Tom Petty & Jeff Lynne

Transcribed by Slowhand

Gtr I (E A D G B E) - 'Mike Campbell - Electric Guitar'
Gtr II (E A D G B E) - 'Tom Petty - Acoustic Guitar'
Gtr III (E A D G B D) - 'Mike Campbell - Acoustic Guitar '

 Intro
  Q=103
  Gmaj7/B     Em                                   C
 4/4
  Gtr II (Ac. Gtr.)
   W          Q  Q  +E  E  E E   Q  Q  +E  E E E   Q  Q  +E  E  E E
|-----------|-0--0--(0)-0--0-0-|-0--0--(0)-0-0-0-|-0--0--(0)-0--0-0-|
|-----------|-0--0--(0)-0--0-0-|-0--0--(0)-0-0-0-|-1--1--(1)-1--1-1-|
|-----------|-0--0--(0)-0--0-0-|-0--0--(0)-0-0-0-|-0--0--(0)-0--0-0-|
|-----------|-2--2--(2)-2--2-2-|-2--2--(2)-2-2-2-|-2--2--(2)-2--2-2-|
|-----------|-2--2--(2)-2--2-2-|-2--2--(2)-2-2-2-|-3--3--(3)-3--3-3-|
|-----------|-0--0--(0)-0--0-0-|-0--0--(0)-0-0-0-|------------------|
|
| Gtr I (El. Gtr.)
|  W          Q  Q  +E  Q.       W                 Q  Q  +E  Q.
|-10--------|------------------|-----------------|------------------|
|--8--------|------------------|-3---------------|------------------|
|-11--------|-----------0------|-----------------|-----------0------|
|--9--------|----4--(4)--------|-----------------|----4--(4)--------|
|-----------|------------------|-----------------|------------------|
|-----------|------------------|-----------------|------------------|


                    Em                                     C
  Q  Q  +E  E E E    Q   Q  +E  E  E E   Q  Q  +E  E E E   Q  Q  +E  E  E E
|-0--0--(0)-0-0-0-|--0---0--(0)-0--0-0-|-0--0--(0)-0-0-0-|-0--0--(0)-0--0-0-|
|-1--1--(1)-1-1-1-|--0---0--(0)-0--0-0-|-0--0--(0)-0-0-0-|-1--1--(1)-1--1-1-|
|-0--0--(0)-0-0-0-|--0---0--(0)-0--0-0-|-0--0--(0)-0-0-0-|-0--0--(0)-0--0-0-|
|-2--2--(2)-2-2-2-|--2---2--(2)-2--2-2-|-2--2--(2)-2-2-2-|-2--2--(2)-2--2-2-|
|-3--3--(3)-3-3-3-|--2---2--(2)-2--2-2-|-2--2--(2)-2-2-2-|-3--3--(3)-3--3-3-|
|-----------------|--0---0--(0)-0--0-0-|-0--0--(0)-0-0-0-|------------------|
|
| W                  Q   Q  +E  Q.       W                 Q  Q  +E  Q.
|-----------------|--------------------|-----------------|------------------|
|-3---------------|--------------------|-3---------------|------------------|
|-----------------|-------------0------|-----------------|-----------0------|
|-----------------|------4--(4)--------|-----------------|----4--(4)--------|
|-----------------|--------------------|-----------------|------------------|
|-----------------|--------------------|-----------------|------------------|
|
| Gtr III (Ac. Gtr. w/ slide - EADGBD)
| H      E  E Q     +W                   W                 W
|-----------------|--------------------|-----------------|------------------|
|-----------------|--------------------|-----------------|------------------|
|-----------2s4---|-(4)----------------|-----------------|------------------|
|-----------------|--------------------|-----------------|------------------|
|-----------------|--------------------|-----------------|------------------|
|-----------------|--------------------|-----------------|------------------|


                     1st - 3rd Verses
                  $
                        Em
  Q  Q  +E  E E E        Q   Q   +E  E  E E
|-0--0--(0)-0-0-0-||-----0---0---(0)-0--0-0-|
|-1--1--(1)-1-1-1-||o----0---0---(0)-0--0-0-|
|-0--0--(0)-0-0-0-||-----0---0---(0)-0--0-0-|
|-2--2--(2)-2-2-2-||-----2---2---(2)-2--2-2-|
|-3--3--(3)-3-3-3-||o----2---2---(2)-2--2-2-|
|-----------------||-----0---0---(0)-0--0-0-|
|
| W                      Q   Q   +E  Q.
|-----------------||------------------------|
|-3---------------||o-----------------------|
|-----------------||-----------------0------|
|-----------------||---------4---(4)--------|
|-----------------||o-----------------------|
|-----------------||------------------------|
|
| W                   a  Q   H          Q
|-----------------||------------------------|
|-----------------||o-----------------------|
|-----------------||--7s=9--(9)-------------|
|-----------------||----/9--(9)-------------|
|-----------------||o-----------------------|
|-----------------||------------------------|


                    C
  Q  Q  +E  E E E    Q   Q   +E  E  E E
|-0--0--(0)-0-0-0-|--0---0---(0)-0--0-0-|
|-0--0--(0)-0-0-0-|--1---1---(1)-1--1-1-|
|-0--0--(0)-0-0-0-|--0---0---(0)-0--0-0-|
|-2--2--(2)-2-2-2-|--2---2---(2)-2--2-2-|
|-2--2--(2)-2-2-2-|--3---3---(3)-3--3-3-|
|-0--0--(0)-0-0-0-|---------------------|
|
| W                  Q   Q   +E  Q.
|-----------------|---------------------|
|-3---------------|---------------------|
|-----------------|--------------0------|
|-----------------|------4---(4)--------|
|-----------------|---------------------|
|-----------------|---------------------|
|
| W                  Q   H          Q
|-----------------|---------------------|
|-----------------|-/5--(5)-------------|
|-----------------|-/5--(5)-------------|
|-----------------|---------------------|
|-----------------|---------------------|
|-----------------|---------------------|


                    Em                                     C
  Q  Q  +E  E E E    Q   Q   +E  E E E   Q  Q  +E  E E E    Q   Q   +E  E E E
|-0--0--(0)-0-0-0-|--0---0---(0)-0-0-0-|-0--0--(0)-0-0-0-|--0---0---(0)-0-0-0-|
|-1--1--(1)-1-1-1-|--0---0---(0)-0-0-0-|-0--0--(0)-0-0-0-|--1---1---(1)-1-1-1-|
|-0--0--(0)-0-0-0-|--0---0---(0)-0-0-0-|-0--0--(0)-0-0-0-|--0---0---(0)-0-0-0-|
|-2--2--(2)-2-2-2-|--2---2---(2)-2-2-2-|-2--2--(2)-2-2-2-|--2---2---(2)-2-2-2-|
|-3--3--(3)-3-3-3-|--2---2---(2)-2-2-2-|-2--2--(2)-2-2-2-|--3---3---(3)-3-3-3-|
|-----------------|--0---0---(0)-0-0-0-|-0--0--(0)-0-0-0-|--------------------|
|
| W                  W                   W                  W
|-----------------|--------------------|-----------------|--------------------|
|-3---------------|--------------------|-----------------|--------------------|
|-----------------|--------------------|-----------------|--------------------|
|-----------------|--------------------|-----------------|--------------------|
|-----------------|--------------------|-----------------|--------------------|
|-----------------|--------------------|-----------------|--------------------|
|
| W                  Q   H         Q     W                  Q   H         Q
|-----------------|--------------------|-----------------|--------------------|
|-----------------|--------------------|-----------------|-/5--(5)------------|
|-----------------|-/9--(9)------------|-----------------|-/5--(5)------------|
|-----------------|-/9--(9)------------|-----------------|--------------------|
|-----------------|--------------------|-----------------|--------------------|
|-----------------|--------------------|-----------------|--------------------|


                    Chorus
                     D                                    Am7
  Q  Q  +E  E E E    Q  Q  +E  E  E E   Q  Q  +E  E E E   Q  Q  +E  E  E E
|-0--0--(0)-0-0-0-||-2--2--(2)-2--2-2-|-2--2--(2)-2-2-2-|-0--0--(0)-0--0-0-|
|-1--1--(1)-1-1-1-||-3--3--(3)-3--3-3-|-3--3--(3)-3-3-3-|-1--1--(1)-1--1-1-|
|-0--0--(0)-0-0-0-||-2--2--(2)-2--2-2-|-2--2--(2)-2-2-2-|-0--0--(0)-0--0-0-|
|-2--2--(2)-2-2-2-||-0--0--(0)-0--0-0-|-0--0--(0)-0-0-0-|-2--2--(2)-2--2-2-|
|-3--3--(3)-3-3-3-||------------------|-----------------|-0--0--(0)-0--0-0-|
|-----------------||------------------|-----------------|------------------|
|
| W                  Q  Q  +E  Q.       W                 Q  Q  +E  Q.
|-----------------||------------------|-----------------|------------------|
|-----------------||------------------|-3---------------|------------------|
|-----------------||-----------0------|-----------------|-----------0------|
|-----------------||----4--(4)--------|-----------------|----4--(4)--------|
|-----------------||------------------|-----------------|------------------|
|-----------------||------------------|-----------------|------------------|


                    D                                    Am7
  Q  Q  +E  E E E   Q  Q  +E  E  E E   Q  Q  +E  E E E   Q  Q  +E  E  E E
|-0--0--(0)-0-0-0-|-2--2--(2)-2--2-2-|-2--2--(2)-2-2-2-|-0--0--(0)-0--0-0-|
|-1--1--(1)-1-1-1-|-3--3--(3)-3--3-3-|-3--3--(3)-3-3-3-|-1--1--(1)-1--1-1-|
|-0--0--(0)-0-0-0-|-2--2--(2)-2--2-2-|-2--2--(2)-2-2-2-|-0--0--(0)-0--0-0-|
|-2--2--(2)-2-2-2-|-0--0--(0)-0--0-0-|-0--0--(0)-0-0-0-|-2--2--(2)-2--2-2-|
|-0--0--(0)-0-0-0-|------------------|-----------------|-0--0--(0)-0--0-0-|
|-----------------|------------------|-----------------|------------------|
|
| W                 Q  Q  +E  Q.       W                 Q  Q  +E  Q.
|-----------------|------------------|-----------------|------------------|
|-3---------------|------------------|-3---------------|------------------|
|-----------------|-----------0------|-----------------|-----------0------|
|-----------------|----4--(4)--------|-----------------|----4--(4)--------|
|-----------------|------------------|-----------------|------------------|
|-----------------|------------------|-----------------|------------------|


                    Bm7                                    Am7
  Q  Q  +E  E E E     Q  Q  +E  E  E E   Q  Q  +E  E E E   Q  Q  +E  E  E E
|-0--0--(0)-0-0-0-|---2--2--(2)-2--2-2-|-2--2--(2)-2-2-2-|-0--0--(0)-0--0-0-|
|-1--1--(1)-1-1-1-|---3--3--(3)-3--3-3-|-3--3--(3)-3-3-3-|-1--1--(1)-1--1-1-|
|-0--0--(0)-0-0-0-|---2--2--(2)-2--2-2-|-2--2--(2)-2-2-2-|-0--0--(0)-0--0-0-|
|-2--2--(2)-2-2-2-|---4--4--(4)-4--4-4-|-4--4--(4)-4-4-4-|-2--2--(2)-2--2-2-|
|-0--0--(0)-0-0-0-|---2--2--(2)-2--2-2-|-2--2--(2)-2-2-2-|-0--0--(0)-0--0-0-|
|-----------------|--------------------|-----------------|------------------|
|
| W                   Q  Q  +E  Q.       W                 Q  Q  +E  Q.
|-----------------|--------------------|-----------------|------------------|
|-3---------------|--------------------|-3---------------|------------------|
|-----------------|-------------0------|-----------------|-----------0------|
|-----------------|------4--(4)--------|-----------------|----4--(4)--------|
|-----------------|--------------------|-----------------|------------------|
|-----------------|--------------------|-----------------|------------------|
|
| Gtr III
|                     ~~~
| W                   W                  W                 W
|-----------------|-/12----------------|-----------------|------------------|
|-----------------|-/12----------------|-----------------|------------------|
|-----------------|--------------------|-----------------|------------------|
|-----------------|--------------------|-----------------|------------------|
|-----------------|--------------------|-----------------|------------------|
|-----------------|--------------------|-----------------|------------------|


                    Em
  Q  Q  +E  E E E   Q  Q  +E  E  E E
|-0--0--(0)-0-0-0-|-0--0--(0)-0--0-0-|
|-1--1--(1)-1-1-1-|-0--0--(0)-0--0-0-|
|-0--0--(0)-0-0-0-|-0--0--(0)-0--0-0-|
|-2--2--(2)-2-2-2-|-2--2--(2)-2--2-2-|
|-0--0--(0)-0-0-0-|-2--2--(2)-2--2-2-|
|-----------------|-0--0--(0)-0--0-0-|
|
| W                 Q  Q  +E  Q.
|-----------------|------------------|
|-3---------------|------------------|
|-----------------|-----------0------|
|-----------------|----4--(4)--------|
|-----------------|------------------|
|-----------------|------------------|
|
| W                 W
|-----------------|------------------|
|-----------------|------------------|
|-----------------|------------------|
|-----------------|------------------|
|-----------------|------------------|
|-----------------|------------------|


                          1.
               To Coda
                           C
  Q  Q  +E  E  E    E      Q   Q  +E  E E E
|-0--0--(0)-0--0----0----|-0---0--(0)-0-0-0--|
|-0--0--(0)-0--0----0----|-1---1--(1)-1-1-1--|
|-0--0--(0)-0--0----0----|-0---0--(0)-0-0-0--|
|-2--2--(2)-2--2----2----|-2---2--(2)-2-2-2--|
|-2--2--(2)-2--2----2----|-3---3--(3)-3-3-3--|
|-0--0--(0)-0--0----0----|-------------------|
|
| W                        W
|------------------------|-------------------|
|-3----------------------|-------------------|
|------------------------|-------------------|
|------------------------|-------------------|
|------------------------|-------------------|
|------------------------|-------------------|
|
|                              ~~~~~~~
|              |---3---|   |3|
| H      Q    +E  E    E   E Q Q  +H
|------------------------|-------------------|
|------------------------|-------------------|
|-------/4----(4)--------|-------------------|
|-----------------7S===5-|-7S5-5--(5)--------|
|------------------------|-------------------|
|------------------------|-------------------|


                     Guitar Solo
                     2.
                      C                                       D
  Q  Q  +E  E E E     Q  Q  +E  E  E E    Q   Q   +E  E E E   Q  Q  +E  E  E E
|-0--0--(0)-0-0-0--||-0--0--(0)-0--0-0-|--0---0---(0)-0-0-0-|-2--2--(2)-2--2-2-|
|-1--1--(1)-1-1-1-o||-1--1--(1)-1--1-1-|--1---1---(1)-1-1-1-|-3--3--(3)-3--3-3-|
|-0--0--(0)-0-0-0--||-0--0--(0)-0--0-0-|--0---0---(0)-0-0-0-|-2--2--(2)-2--2-2-|
|-2--2--(2)-2-2-2--||-2--2--(2)-2--2-2-|--2---2---(2)-2-2-2-|-0--0--(0)-0--0-0-|
|-3--3--(3)-3-3-3-o||-3--3--(3)-3--3-3-|--3---3---(3)-3-3-3-|------------------|
|------------------||------------------|--------------------|------------------|
|
| W                   H      Q.      E   +Q   Q   +E  E E E   H      Q.      E
|------------------||--------0-------0-|-(0)--0---(0)-0-0-0-|--------0-------0-|
|-----------------o||------------------|--------------------|-3----------------|
|------------------||----4--(4)-2------|--4-----------------|----4--(4)-2------|
|------------------||------------------|--------2-(2)-------|------------------|
|-----------------o||------------------|--------------------|------------------|
|------------------||------------------|--------------------|------------------|
                      Q  Q  +E  Q.        Q.    E +H          Q  Q  +E  Q.


                        C
   Q   Q   +E  E  E E   Q  Q  +E  E  E E
|--2---2---(2)-2--2-2-|-0--0--(0)-0--0-0-|
|--3---3---(3)-3--3-3-|-1--1--(1)-1--1-1-|
|--2---2---(2)-2--2-2-|-0--0--(0)-0--0-0-|
|--0---0---(0)-0--0-0-|-2--2--(2)-2--2-2-|
|---------------------|-3--3--(3)-3--3-3-|
|---------------------|------------------|
|
| +Q   Q    E  Q.       H      Q.      E
|-(0)--0----0--0------|--------0-------0-|
|--3------------------|------------------|
|--------4-(4)----2-4-|----4--(4)-2------|
|---------------------|-2----------------|
|---------------------|------------------|
|---------------------|------------------|
   Q.    E +Q     E E   Q  Q  +E  Q.


                        D
    Q   Q   +E  E E E   Q  Q  +E  E  E E
|---0---0---(0)-0-0-0-|-2--2--(2)-2--2-2-|
|---1---1---(1)-1-1-1-|-3--3--(3)-3--3-3-|
|---0---0---(0)-0-0-0-|-2--2--(2)-2--2-2-|
|---2---2---(2)-2-2-2-|-0--0--(0)-0--0-0-|
|---3---3---(3)-3-3-3-|------------------|
|---------------------|------------------|
|
|   Q   Q   +E  E E E   H      Q.      E
|---0---0---(0)---0---|--------0-------0-|
|---------------0---0-|-3----------------|
|-2h4-----------------|----4--(4)-2------|
|---------2-(2)-------|------------------|
|---------------------|------------------|
|---------------------|------------------|
  a Q.    E +H          Q  Q  +E  Q.


                        Outro
         D.S. al Coda &
                         C
   Q   Q   +E  E E E     Q  Q  +E  E E E
|--2---2---(2)-2-2-2--||-0--0--(0)-0-0-0-|
|--3---3---(3)-3-3-3--||-1--1--(1)-1-1-1-|
|--2---2---(2)-2-2-2--||-0--0--(0)-0-0-0-|
|--0---0---(0)-0-0-0--||-2--2--(2)-2-2-2-|
|---------------------||-3--3--(3)-3-3-3-|
|---------------------||-----------------|
|
| +Q   Q   +H            W
|-(0)--0---(0)--------||-----------------|
|--3------------------||-----------------|
|--------4-(4)--------||-----------------|
|---------------------||-----------------|
|---------------------||-----------------|
|---------------------||-----------------|
|  Q.    E +H
|
| Gtr III
|  W                     W
|---------------------||-----------------|
|---------------------||-----------------|
|---------------------||-----------------|
|---------------------||-----------------|
|---------------------||-----------------|
|---------------------||-----------------|


                    Em
  Q  Q  +E  E E E   Q  Q       +E       E       E      E
|-0--0--(0)-0-0-0-|-0--0-------(0)------0-------0------0--|
|-1--1--(1)-1-1-1-|-0--0-------(0)------0-------0------0--|
|-0--0--(0)-0-0-0-|-0--0-------(0)------0-------0------0--|
|-2--2--(2)-2-2-2-|-2--2-------(2)------2-------2------2--|
|-3--3--(3)-3-3-3-|-2--2-------(2)------2-------2------2--|
|-----------------|-0--0-------(0)------0-------0------0--|
|
| W                 Q  Q       +E       Q.
|-----------------|---------------------------------------|
|-----------------|---------------------------------------|
|-----------------|---------------------0-----------------|
|-----------------|----4-------(4)------------------------|
|-----------------|---------------------------------------|
|-----------------|---------------------------------------|
|
|                                                      ~~
| W                 Q  E  S  S  S    S  S    S  S   S  E
|-----------------|------------12------12------12-----12--|
|-----------------|------10s12-----/12-----/12----/12-----|
|-----------------|---------------------------------------|
|-----------------|---------------------------------------|
|-----------------|---------------------------------------|
|-----------------|---------------------------------------|


                             C
    Q   Q  +E    E     E E    Q   Q  +E  E  E E
|---0---0--(0)---0-----0-0-|--0---0--(0)-0--0-0-|
|---0---0--(0)---0-----0-0-|--1---1--(1)-1--1-1-|
|---0---0--(0)---0-----0-0-|--0---0--(0)-0--0-0-|
|---2---2--(2)---2-----2-2-|--2---2--(2)-2--2-2-|
|---2---2--(2)---2-----2-2-|--3---3--(3)-3--3-3-|
|---0---0--(0)---0-----0-0-|--------------------|
|
|   W                         Q   Q  +E  Q.
|--------------------------|--------------------|
|---3----------------------|--------------------|
|--------------------------|-------------0------|
|--------------------------|------4--(4)--------|
|--------------------------|--------------------|
|--------------------------|--------------------|
|
|   ~~~~                 ~~~~~~~~
|           |---3---|
|  +Q   Q  +E  E    E  E E   +H       H
|-(12)---------------------|--------------------|
|-------5--(5)-3---(0)-5-5-|-(5)----------------|
|--------------------------|--------------------|
|--------------------------|--------------------|
|--------------------------|--------------------|
|--------------------------|--------------------|


                    Em
  Q  Q  +E  E E E   Q  Q  +E  E    E   E
|-0--0--(0)-0-0-0-|-0--0--(0)-0----0---0-|
|-1--1--(1)-1-1-1-|-0--0--(0)-0----0---0-|
|-0--0--(0)-0-0-0-|-0--0--(0)-0----0---0-|
|-2--2--(2)-2-2-2-|-2--2--(2)-2----2---2-|
|-3--3--(3)-3-3-3-|-2--2--(2)-2----2---2-|
|-----------------|-0--0--(0)-0----0---0-|
|
| W                 Q  Q  +E  Q.
|-----------------|----------------------|
|-3---------------|----------------------|
|-----------------|-----------0----------|
|-----------------|----4--(4)------------|
|-----------------|----------------------|
|-----------------|----------------------|
|
|                          |----3----|
| W                 H      Q     Q   Q
|-----------------|----------------------|
|-----------------|----------------------|
|-----------------|-------/9-----9---9---|
|-----------------|----------------------|
|-----------------|----------------------|
|-----------------|----------------------|


                          C
  Q   Q   +E  E   E   E   Q   Q   +E  E    E   E
|-0---0---(0)-0---0---0-|-0---0---(0)-0----0---0-|
|-0---0---(0)-0---0---0-|-1---1---(1)-1----1---1-|
|-0---0---(0)-0---0---0-|-0---0---(0)-0----0---0-|
|-2---2---(2)-2---2---2-|-2---2---(2)-2----2---2-|
|-2---2---(2)-2---2---2-|-3---3---(3)-3----3---3-|
|-0---0---(0)-0---0---0-|------------------------|
|
| W                       Q   Q   +E  Q.
|-----------------------|------------------------|
|-3---------------------|------------------------|
|-----------------------|-------------0----------|
|-----------------------|-----4---(4)------------|
|-----------------------|------------------------|
|-----------------------|------------------------|
|
| ~~~~~~~~~~~~~~~~~~~~~~~~~~~~~~~~~~~~~~~~~~~~~~~~
| |--3--|  |---3----|     |--3--|  |----3----|
| Q Q   Q  Q    Q   Q     Q Q   Q  Q     Q   Q
|-----------------------|------------------------|
|-----------------------|------------------------|
|-9-9---9--9----9---9---|-9-9---9--9-----9---9---|
|-----------------------|------------------------|
|-----------------------|------------------------|
|-----------------------|------------------------|


                    Em
  Q  Q  +E  E E E   Q  Q  +E  E  E E
|-0--0--(0)-0-0-0-|-0--0--(0)-0--0-0-|
|-1--1--(1)-1-1-1-|-0--0--(0)-0--0-0-|
|-0--0--(0)-0-0-0-|-0--0--(0)-0--0-0-|
|-2--2--(2)-2-2-2-|-2--2--(2)-2--2-2-|
|-3--3--(3)-3-3-3-|-2--2--(2)-2--2-2-|
|-----------------|-0--0--(0)-0--0-0-|
|
| W                 Q  Q  +E  Q.
|-----------------|------------------|
|-3---------------|------------------|
|-----------------|-----------0------|
|-----------------|----4--(4)--------|
|-----------------|------------------|
|-----------------|------------------|
|
|~~~
| Q  Q   H          W
|-----------------|------------------|
|-----------------|------------------|
|-9---------------|------------------|
|-----------------|------------------|
|-----------------|------------------|
|-----------------|------------------|


                    C
  Q  Q  +E  E E E   Q  Q  +E  E  E E    Q  Q  +E  E E E
|-0--0--(0)-0-0-0-|-0--0--(0)-0--0-0-|--0--0--(0)-0-0-0-|
|-0--0--(0)-0-0-0-|-1--1--(1)-1--1-1-|--1--1--(1)-1-1-1-|
|-0--0--(0)-0-0-0-|-0--0--(0)-0--0-0-|--0--0--(0)-0-0-0-|
|-2--2--(2)-2-2-2-|-2--2--(2)-2--2-2-|--2--2--(2)-2-2-2-|
|-2--2--(2)-2-2-2-|-3--3--(3)-3--3-3-|--3--3--(3)-3-3-3-|
|-0--0--(0)-0-0-0-|------------------|------------------|
|
| W                 Q  Q  +E  Q.        W
|-----------------|------------------|------------------|
|-3---------------|------------------|--3---------------|
|-----------------|-----------0------|------------------|
|-----------------|----4--(4)--------|------------------|
|-----------------|------------------|------------------|
|-----------------|------------------|------------------|
|
|                                       ~~
| W                 W                   H      Q    Q
|-----------------|------------------|------------------|
|-----------------|------------------|------------------|
|-----------------|------------------|------------------|
|-----------------|------------------|-/9------7--------|
|-----------------|------------------|------------------|
|-----------------|------------------|------------------|


  Em
  Q  Q  +E  E     E   E   Q   Q   +E  E   E   E
|-0--0--(0)-0-----0---0-|-0---0---(0)-0---0---0---*|
|-0--0--(0)-0-----0---0-|-0---0---(0)-0---0---0---*|
|-0--0--(0)-0-----0---0-|-0---0---(0)-0---0---0---*|
|-2--2--(2)-2-----2---2-|-2---2---(2)-2---2---2---*|
|-2--2--(2)-2-----2---2-|-2---2---(2)-2---2---2---*|
|-0--0--(0)-0-----0---0-|-0---0---(0)-0---0---0---*|
|
| Q  Q  +E  Q.            W
|-----------------------|-------------------------*|
|-----------------------|-3-----------------------*|
|-----------0-----------|-------------------------*|
|----4--(4)-------------|-------------------------*|
|-----------------------|-------------------------*|
|-----------------------|-------------------------*|
|
|               ~~~~~~~~~~~~~~~~~~~~~~~~~~~~~~
|        |----3-----|     |--3--|  |---3----|
| H      Q      Q   Q     Q Q   Q  Q    Q   Q
|-----------------------|-------------------------*|
|-----------------------|-------------------------*|
|-----------------------|-------------------------*|
|-----------------------|-------------------------*|
|--------------/7---7---|-7-7---7--7----7---7-----*|
|-----------------------|-------------------------*|


Duration Legend
---------------
W - whole; H - half; Q - quarter; E - 8th; S - 16th; T - 32nd; X - 64th; a - acciaccatura
+ - note tied to previous; . - note dotted; .. - note double dotted
Uncapitalized letters represent notes that are staccato (1/2 duration)
Irregular groupings are notated above the duration line
Duration letters will always appear directly above the note/fret number it represents the
duration for.  Duration letters with no fret number below them represent rests.  Multi-
bar rests are notated in the form Wxn, where n is the number of bars to rest for.  Low
melody durations appear below the staff

Tablature Legend
----------------
 h   - hammer-on
 p   - pull-off
 b   - bend
 pb  - pre-bend
 r   - bend release (if no number after the r, then release immediately)
 /\  - slide into or out of (from/to "nowhere")
 s   - legato slide
 S   - shift slide
  - natural harmonic
[n]  - artificial harmonic
n(n) - tapped harmonic
 ~   - vibrato
 tr  - trill
 T   - tap
 TP  - trem. picking
 PM  - palm muting
\n/  - tremolo bar dip; n = amount to dip
 \n  - tremolo bar down
 n/  - tremolo bar up
/n\  - tremolo bar inverted dip
 =   - hold bend; also acts as connecting device for hammers/pulls
 <>  - volume swell (louder/softer)
 x   - on rhythm slash represents muted slash
 o   - on rhythm slash represents single note slash

Misc Legend
-----------
 |  - bar
||  - double bar
||o - repeat start
o|| - repeat end
*|  - double bar (ending)
 :  - bar (freetime)
 $  - Segno
 &  - Coda
Tempo markers -  = BPM(8/16=s8/s16), where s8 = swing 8ths, s16 = swing 16ths

            
            
Suggest correction
Creating personal tab
Creating personal tab
You can edit any tab online and save it as your Personal.

You can edit, replace or remove any tab part or add personal notes – all changes will be seen only by you.

Personal tabs can be accessed anytime from any device, even offline.
Learn more »
Give kudos to tab author, rate the tab!
1 2 3 4 5
comments
print report bad tab
guest
You may want to rate the tab now too:
select rating
Wanna post a correction for this tab? Suggest correction