Oops, an error
Loading. Please wait.

A Higher Place bass

373 views 3 this week
no commentswrite comment
1 2 3 4 5
2 more votes to show rating
add to favorites
×
Save as Personal and add changes to this tab that will be seen only by you. Learn more ›
×
You can save this tab as Personal to edit and correct it or add notes. All changes will be seen only by you. Learn more »
launch autoscroll
font size
0
reset
guitar tuner
edit
Autoscroll
slow
fast
+/-
esc
set tempo
stop
-------------------------------------------------------------------------------
                             A Higher Place - Tom Petty
-------------------------------------------------------------------------------
Tabbed by: Mike Kunz
E-mail: rmjk21@embarqmail.com

Tuning: Standard

  Intro
G|---------------------------------------------|
D|---------------------7---------------------7-|
A|-7---5---45-7---5-5-9--7---5---45-7---5-5-9--|
E|---5---5------5----------5---5------5--------|

  We gotta get to a higher place
G|---------------------------------------------------------------------------|
D|---------------------7---------------------7---------------------7---------|
A|-7---5---45-7---5-5-9--7---5---45-7---5-5-9--7---5---45-7---5-5-9--7---5---|
E|---5---5------5----------5---5------5----------5---5------5----------5---5-|

  find somebody who can help somebody
G|-----------------------------------------------------------------|
D|-----------------------------------------------------------------|
A|-5-5-----5-5-----5-5-----9-9-9-9---------9-9-9-9-----------------|
E|-----5-5-----5-5-----5-5---------7-7-7-7---------7-7-7-7-7-7-7-7-|

   Well I told myself
G|------------------------------------------------------------------------|
D|---------------------7------------------7---------------------7---------|
A|-7---5---45-7---5-5-9--7---5---7---5-5-9--7---5---45-7---5-5-9--7---5---|
E|---5---5------5----------5---5---5----------5---5------5----------5---5-|

  find somebody who can help somebody
G|-----------------------------------------------------------------|
D|-----------------------------------------------------------------|
A|-5-5-----5-5-----5-5-----9-9-9-9---------9-9-9-9-----------------|
E|-----5-5-----5-5-----5-5---------7-7-7-7---------7-7-7-7-7-7-7-7-|

  we gotta get to a higher place
G|--------------------------------------------------------9\14-----9\14----|
D|--7----------------7----------------7----------------7--------7--------7-|
A|-------------------------------------------------------------------------|
E|-------------------------------------------------------------------------|


( interlude )
G|---------------------------------------------|
D|---------------------7---------------------7-|
A|-7---5---45-7---5-5-9--7---5---45-7---5-5-9--|
E|---5---5------5----------5---5------5--------|


I remember walking with her
G|------------------------------------------------------------------------|
D|---------------------7------------------7---------------------7---------|
A|-7---5---45-7---5-5-9--7---5---7---5-5-9--7---5---45-7---5-5-9--7---5---|
E|---5---5------5----------5---5---5----------5---5------5----------5---5-|


  find somebody who can help somebody
G|-----------------------------------------------------------------|
D|-----------------------------------------------------------------|
A|-5-5-----5-5-----5-5-----9-9-9-9---------9-9-9-9-----------------|
E|-----5-5-----5-5-----5-5---------7-7-7-7---------7-7-7-7-7-7-7-7-|


  ( interlude solo )
G|------------------------------------------------------------------------|
D|---------------------7------------------7---------------------7---------|
A|-7---5---45-7---5-5-9--7---5---7---5-5-9--7---5---45-7---5-5-9--7---5---|
E|---5---5------5----------5---5---5----------5---5------5----------5---5-|

G|-----------------------------------------------------------------|
D|-----------------------------------------------------------------|
A|-5-5-----5-5-----5-5-----9-9-9-9---------9-9-9-9-----------------|
E|-----5-5-----5-5-----5-5---------7-7-7-7---------7-7-7-7-7-7-7-7-|


  Outro
G|------------------------------------------------|
D|---------------------7---------------------7----|
A|-7---5---45-7---5-5-9--7---5---45-7---5-5-9--7--|
E|---5---5------5----------5---5------5-----------|

            
            
Suggest correction
Creating personal tab
Creating personal tab
You can edit any tab online and save it as your Personal.

You can edit, replace or remove any tab part or add personal notes – all changes will be seen only by you.

Personal tabs can be accessed anytime from any device, even offline.
Learn more »
Give kudos to tab author, rate the tab!
1 2 3 4 5
comments
print report bad tab
guest
You may want to rate the tab now too:
select rating
Wanna post a correction for this tab? Suggest correction